Give Kudos?
Are you sure you want to give kudos to Koichi Kondo?

Add To Songbook?
Are you sure you want to add this song to your songbook?


2,634 bands | 34,497 songs
Search: Register FREE! | Login
Browse Songs:
Browse Bands:
Tool Panel
Discuss This Song

1 2 3 4 5





Easton Corbin - Clockwork (Chord)
Submitter: Koichi Kondo (924) on 2/13/14
Month Views: 405 | Total Views: 34,700
Moderator: BrianEarlHaines | Report This Song?
Song Tools

Comment

Songbook

Kudos

Show Chords

Print

Clockwork
Written by Ashley Gorley, Wade Kirby & Carson Chamberlain
Recorded by Easton Corbin

Intro. (Bass Tabs)
     Am  C    C/E  G   F    G   Am  C    C/E  G   F
G: |-------------|------------|-------------|------------|
D: |-------------|------------|-------------|------------|
A: |-0---3--3----|------------|-0---3--3----|------------|
E: |-----------0-|-3---1----3-|-----------0-|-3---1------|

(Am) Might as well (C)have my alarm (G) set on my (F) phone, girl
(Am) It's like you got a (C) camera, don't know (G)how you know, I'm home alone, girl
(Am) Come around (C)10:47 (G)every Friday (F)night
(Am) Might as well (C)leave the light on, 'cause you're (G)always right on time (C/E)

(Chorus)
(F) You call, (C) I say (C/B)hel-(Am)lo, you (G)knock, I'm lettin' (C/E)you in
(F) You say, (C) you've missed (Bm)my (Am)lips, we (G)kiss, here we go again
(F) Your dress, (C) my shirt, (C/B)we (Am)love, I (G)live and never (C/E)learn
(F) I crash, (C) I burn, (C/B)you (Am)leave, I (G)hurt like clockwork

Solo (Bass Tabs)
     Am  C    C/E  G   F    G
G: |-------------|------------|
D: |-------------|------------|
A: |-0---3--3----|------------|
E: |-----------0-|-3---1----3-|

(Am) It's like I'm walk-(C)in' down the street and (G)fall in that (F)same trap, girl
(Am) I see a freight (C)train comin', I just (G)stand there on the tracks, girl
(Am) Somebody'd (C)be gettin' rich (C/E)if (G)they were placin' (F)bets
(Am) On me (C)thinkin' no, no, no, (C/E) (G)always sayin', yes (C/E)

(Chorus)
(F) You call, (C) I say (C/B)hel-(Am)lo, you (G)knock, I'm lettin' (C/E)you in
(F) You say, (C) you've missed (Bm)my (Am)lips, we (G)kiss, here we go again
(F) Your dress, (C) my shirt, (C/B)we (Am)love, I (G)live and never (C/E)learn
(F) I crash, (C) I burn, (C/B)you (Am)leave, I (G)hurt like clock-(C/E)(F)-work

Solo (Bass Tabs)
    F F/A C   C/    Am   G   G/E
G: |--------------|-------------|
D: |--------------|-------------|
A: |----0-3--3--2-|-0--0--------|
E: |-1------------|------3--3-0-|

It's too (F)eas-(C)y, you know my street, (Am) and you know (G)where I leave my (F)key
Baby, you know (C)me, I can count on (Am)you, to count on (G)me
It's like a (F)movie I've seen a (C)thousand times I (Am)hate the end
But (G)I still hit re-(Em)wind (F) (G/F) (F)

(Chorus)
(F) You call, (C) I say (C/B)hel-(Am)lo, you (G)knock, I'm lettin' (C/E)you in
(F) You say, (C) you've missed (Bm)my (Am)lips, we (G)kiss, here we go again
(F) Your dress, (C) my shirt, (C/B)we (Am)love, I (G)live and never (C/E)learn
(F) I crash, (C) I burn, (C/B)you (Am)leave, I (G)hurt like clock-(C/E)(F)-work

Outro. (Bass Tabs)
    F  F/A C   C/B  Am   G  G/E  F  F/A C   C/B  Am  G   G/E
G: |--------------|-------------|--------------|-------------|
D: |--------------|-------------|--------------|-------------|
A: |----0-3--3--2-|-0--0--------|----0-3--3--2-|-0--0--------|
E: |-1------------|------3--3-0-|-1------------|------3--3-0-|

    F  F/A C   C/B  Am   G  G/E  F  F/A C   C/B  Am  G
G: |--------------|-------------|--------------|-------------|
D: |--------------|-------------|--------------|-------------|
A: |----0-3--3--2-|-0--0--------|----0-3--3--2-|-0--0--------|
E: |-1------------|------3--3-0-|-1------------|------3------|
 
 Comments (click here to add a non-facebook comment)
Home | FAQs | Privacy | Terms | Advertise | Contact
Top 100 Tab Sites