Give Kudos?
Are you sure you want to give kudos to countryman2009?

Add To Songbook?
Are you sure you want to add this song to your songbook?


2,751 bands | 35,343 songs
Search: Register FREE! | Login
Browse Songs:
Browse Bands:
Tool Panel
Discuss This Song

1 2 3 4 5



Eli Young Band - War On A Desperate Man (Tab)
Album: Life at Best (2011)
Submitter: countryman2009 (2) on 8/17/11
Month Views: 14 | Total Views: 7,171
Moderator: rab05 | Report This Song?
Song Tools

Comment

Songbook

Kudos

Show Chords

Print

eli young band - war on a desperate man



* it`s not perfect but sounds good. I`m open to suggestions and help. Please post the lyrics.
i`m brazilian and i didn`t find it on the web.



intro(2x)


       A6                    E

E----------0---------------------------------------0------------------0-------------------

D------------0----------------------------------------0------------------0---------------

G----------------------------------2----------------------------------------------------

D-----2-------------------------2-------------------------------------------------------

A----0-----------------------2--------------2-------------------2--------------------------

E----------------------------------------0------------------0----------------------------



verses





    A6                    E

E----------0---------------------------------------0------------------0-------------------

D------------0----------------------------------------0------------------0---------------

G----------------------------------2----------------------------------------------------

D-----2-------------------------2-------------------------------------------------------

A----0-----------------------2--------------2-------------------2--------------------------

E----------------------------------------0------------------0----------------------------


A6                    E

E----------0---------------------------------------0------------------0-------------------

D------------0----------------------------------------0------------------0---------------

G----------------------------------2----------------------------------------------------

D-----2-------------------------2-------------------------------------------------------

A----0-----------------------2--------------2-------------------2--------------------------

E----------------------------------------0------------------0----------------------------



A6                    E                         G#m             B

E----------0--------------------------------------------0------------------0-------------------

D------------0--------------------------0-----------------0------------------0---------------

G----------------------------------2-------------------6---------------4-----------------------

D-----2-------------------------2------------------6--------------4----------------------------

A----0-----------------------2------------------4---------------2------------------------------

E--------------------------------------------------------------------------------------


A6                    E

E----------0---------------------------------------0------------------0-------------------

D------------0----------------------------------------0------------------0---------------

G----------------------------------2----------------------------------------------------

D-----2-------------------------2-------------------------------------------------------

A----0-----------------------2--------------2-------------------2--------------------------

E----------------------------------------0------------------0----------------------------





Chorus(2x)



     E                    E                 A6                  A6

E----------0-----------------------0----------------0------------------0-------------------

D------------0------------------------0----------------0---------------------------------

G--------------------------------------------------------------------------------------

D-----------------------------------------------2-----------------2---------------------

A----2--------------------------2-----------0-------------------0--------------------------

E--0-------------------------0-----------------------------------------------------------




 G#m                  B                    A6

E----------0----------------------0----------------0------------------0-------------------

D------------0-----------------------0----------------0-------------------0--------------

G--------------------------------------------------------------------------------------

D---------2-----------------4---------------------2-----------------2---------------------

A----2--4----------------2-------------------0-------------------0--------------------------

E-------------------------------------------------------------------------------------- 



F#m                  G#m                    A6

E----------0----------------------0----------------0------------------0-------------------

D------------0-----------------------0----------------0-------------------0--------------

G--------------------------------------------------------------------------------------

D-----------------------------------------------2-----------------2---------------------

A------4--------------------6---------------0-------------------0--------------------------

E----2------------------4---------------------------------------------------------------- 





F#m                  B                    E

E----------0----------------------0----------------0------------------0-------------------

D------------0-----------------------0----------------0-------------------0--------------

G--------------------------------------------------------------------------------------

D-----------------------------4--------------------------------------------------------

A------4----------------2-----------------------2---------------------2--------------------

E----2--------------------------------------0--------------------0------------------------ 
 Comments (click here to add a non-facebook comment)
Home | FAQs | Privacy | Terms | Advertise | Contact
Top 100 Tab Sites