Give Kudos?
Are you sure you want to give kudos to Deleted Member?

Add To Songbook?
Are you sure you want to add this song to your songbook?


2,726 bands | 35,161 songs
Search: Register FREE! | Login
Browse Songs:
Browse Bands:
Tool Panel
Discuss This Song

1 2 3 4 5



Elvis Presley - Your Cheatin' Heart (Tab)
Album: Great Country Songs (2003)
Submitter: Deleted Member (0) on 11/18/03
Month Views: 28 | Total Views: 10,354
Moderator: Norm08 | Report This Song?
Song Tools

Comment

Songbook

Kudos

Show Chords

Print

Your Cheatin' Heart


Standard tuning.

       Intro:

  e||--10--10--12--12--10--10-
  B||--10--10--12--12--10--10-
  G||-------------------------
  D||-------------------------
  A||-------------------------
  E||-------------------------

     -/9---9---9---8--7------
     -/10--10--10--9--8--/10-
     --------------------/11-
     ------------------------
     ------------------------
     ------------------------

     --------------------||
     -8--7------------7--||
     -9--7------7-----7--||
     -------/9-----9-----||
     --------------------||
     --------------------||


       Riff 1: 

         D
    e||--------------------------||
    B||--------10-10-12b---10-10-||
    G||--------------------------|| 2x
    D||--12-12-------------------||
    A||--------------------------||
    E||--------------------------||

         G                                 
    e||-------------------||
    B||------3-3-5b---3-3-||
    G||-------------------|| 2x
    D||--5-5--------------||
    A||-------------------||
    E||-------------------||

         A
    e||-------------------||
    B||------5-5-7b---5-5-||
    G||-------------------|| 2x
    D||--7-7--------------||
    A||-------------------||
    E||-------------------||



                  Riff 1                     
                   D                   G      
    Your cheatin' heart will make you weep
                   A              D
    You'll cry and cry and try to sleep
                    D                    G
    But sleep won't come the whole night through
                  A                  D
    Your cheatin' heart will tell on you

                    G                 D
    When tears come down like falling rain
                E                  A
    You'll toss around and call my name
                           D                    G
    You're gonna walk that floor the way that I do
                  A                  D
    Your cheatin' heart will tell on you


    When tears come down like falling rain
    You'll toss around and call my name
    You're gonna walk that floor just the way that I do
    Your cheatin' heart will tell on you

    Solo:

    When tears come down like falling rain
    You'll toss around and call my name
    You're gonna walk that floor just the way that I do
    Your cheatin' heart will tell on you
                  A                  D
    Your cheatin' heart will tell on you
                  A                  D
    Your cheatin' heart will tell on you

 Comments (click here to add a non-facebook comment)
Home | FAQs | Privacy | Terms | Advertise | Contact
Top 100 Tab Sites