Give Kudos?
Are you sure you want to give kudos to eric wilson?

Add To Songbook?
Are you sure you want to add this song to your songbook?


2,719 bands | 35,141 songs
Search: Register FREE! | Login
Browse Songs:
Browse Bands:
Tool Panel
Discuss This Song

1 2 3 4 5



Eric Heatherly - Can't Even Do Wrong Right (Chord)
Submitter: eric wilson (2) on 9/9/03 1 comment
Month Views: 15 | Total Views: 3,267
Moderator: wiseguymarshall | Report This Song?
Song Tools

Comment

Songbook

Kudos

Show Chords

Print

Eric Heatherly- Can't Even Do Wrong Right
(Key= F)

Tabbed by: eric wilson

-------------------------------------------------------------------------------------
Chord shapes I use:
 	  	     F = 133211    Bb = 688766 or x13331

 	  	     C = x32010
-------------------------------------------------------------------------------------

Intro.: F    

Verse 1:
F
 I stole a rag top Cadillac,

 going home I had to cross the tracks.
Bb
 Train was coming when the engine died.
F
 I jumped out and watched the two colide.
C
 I barely had the time to save my hide.
               F
 Can't even do wrong right.

Verse 2:
F
 Without a dime at 35, I have up on the good life.
Bb                           F
 I robbed a bank with my .45, I was headed for the border line.
C
 When my gas tank went bone dry.
               F
 Can't even do wrong right.

Chorus:
           Bb                     F
Back where I come from, well they call it hard luck.
         G                             C
But that judge of mine, just called it hard time.

Solo: Bb   F    Bb   C  C C C

Verse 3:
F
 I'm payin' my dues doing time, 

 the wardens teaching me to walk the line.
Bb
 But temptation he's a friend of mine,
F
 he found us a fence to climb.
C
 But then the spot light robbed us blind.
               F
 Can't even do wrong right.

Chorus:
           Bb                     F
Back where I come from, well they call it hard luck.
         G                             C
But that judge of mine, just called it hard time.

Outro: F Bb  (repeat)

I can't even do wrong right
I can't even do wrong right

--------------------------------------------------------------------------
This is played over the verse also. Play like a blues shuffel.

Intro:

Over the F
   F5        Dm/F(no5) F7(no3no5) Dm/F(no5)
E------------------------------------------
B------------------------------------------
G------------------------------------------
D--10-10-10---12-12-12--13-13-13--12-12-12-
A--8--8--8----8--8--8---8--8--8---8--8--8--
E------------------------------------------

Over the Bb
E------------------------------------------
B------------------------------------------
G--10-10-10---12-12-12--13-13-13--12-12-12-
D--8--8--8----8--8--8---8--8--8---8--8--8--
A------------------------------------------
E------------------------------------------

Over the C
E------------------------------------------
B------------------------------------------
G--12-12-12---14-14-14--15-15-15--14-14-14-
D--10-10-10---10-10-10--10-10-10--10-10-10-
A------------------------------------------
E------------------------------------------

 
 Comments (click here to add a non-facebook comment)
wildcard is the man!!!

Keep it Country!!!

And just cause a song is not about getting drunk, cheatin, trains, pick up trucks, rodeo, doesn't mean isnt counrty. Country music is about life, its pure, and truthful!
Just three chords and the truth!!!
-murph_2121 | 8/5/2004
Home | FAQs | Privacy | Terms | Advertise | Contact
Top 100 Tab Sites