Give Kudos?
Are you sure you want to give kudos to geetar81?

Add To Songbook?
Are you sure you want to add this song to your songbook?


2,721 bands | 35,142 songs
Search: Register FREE! | Login
Browse Songs:
Browse Bands:
Tool Panel
Discuss This Song

1 2 3 4 5



Eric Heatherly - Flowers On The Wall (fun Riff) (Tab)
Submitter: geetar81 (3) on 3/16/03
Month Views: 13 | Total Views: 3,751
Moderator: wiseguymarshall | Report This Song?
Song Tools

Comment

Songbook

Kudos

Show Chords

Print

Here's a riff that comes at the end of the song thats a lot
of fun and you can really jam it out with your band to 
lengthen the song quite a bit. Enjoy.

You basically hold onto the G#m chord found in Korry's tab.


|--------------------------
|--------------------------
|---------------4----------
|-6-6-6-x-4-6-4-4-6--------
|-6-6-6-x-4-6-4-x-4--------
|-4-4-4-x-x-4-x-x-4--------

|----------------------|
|----------------------|
|----------------------|
|-6-6-6-x-4-6-4-4-6----|
|-6-6-6-x-4-6-4-4-6----|
|-4-4-4-x-x-4-x-x-4----|
 Comments (click here to add a non-facebook comment)
Home | FAQs | Privacy | Terms | Advertise | Contact
Top 100 Tab Sites