Give Kudos?
Are you sure you want to give kudos to chickenpicker1?

Add To Songbook?
Are you sure you want to add this song to your songbook?


2,711 bands | 35,089 songs
Search: Register FREE! | Login
Browse Songs:
Browse Bands:
Tool Panel
Discuss This Song

1 2 3 4 5



Eric Heatherly - Flowers On The Wall (guitar Solo) (Solo)
Submitter: chickenpicker1 (1) on 8/7/05
Month Views: 22 | Total Views: 6,093
Moderator: wiseguymarshall | Report This Song?
Song Tools

Comment

Songbook

Kudos

Show Chords

Print

Flowers On The Wall (Guitar solo) 

by Eric Heatherly

Tabbed By Chickenpicker1

7 August 2005



I've included the bars to give a guide to timing,  
and a tab of the rhythm guitar part.


I've also posted this as a power tab.
(I originally tabbed it using Guitar Pro 4.0 
which includes the drum track - if anyone wants the GP4 tab let me know.)

Have fun

Cheers

Brendan

***********************************************************************

br    =   bend and release                   \   =   slide down

h     =   hammer-on                          x   =   dead note

pbr   =   pre-bend and release               /   =   slide up 

b     =   bend                               p   =   pulloff  

~     =   Vibrato
    
***********************************************************************

Lead Solo
                               ~
E||----------------------|--------------------|------------------------|
B||------6br-------------|--------------------|------------------------|
G||------6br----4--------|--4-----------------|------------------------|
D||----------------6-----|-----6~-------------|-------4----------------|
A||-------------------6--|--------------------|----6-------6/4-2-------|
E||----------------------|--------------------|-------------------4----|


     ~                                                                        
--------------------|------------------------------|------------7--x--4--x--|
--------------------|------------------------------|-------4----------------|
--------------------|------------------------4--6--|--6b--------------------|
--------------------|------------------------------|------------------------|
--2-----------------|---------------4h-5h-6--------|------------------------|
-----4~-------------|------2h-3h-4-----------------|------------------------|


                                                             ~            
-------------------------|----------------------|-----------------------|
--7--x--4--x-------------|----------------------|-----------------------|
--------------6pbr-4--6--|--4b--------6----4b---|-----------------------|
-------------------------|-------6--------------|--6----4---------------|
-------------------------|----------------------|------------6~---------|
-------------------------|----------------------|-----------------4/-2--|


                                                                        
-----------------------|-----------------------|-----------------------|
-----------------------|-----------------------|--5----5-------5----5p-|
-----------------------|-----------------------|--4----4-------4----4p-|
-----------------------|--2------2----2--4/-6--|----------6------------|
-----------------------|-----------------------|-----------------------|
--0------0----0--2/-4--|-----------------------|-----------------------|


                           *                                           
------------------------|-----------------------|--------------------|
--0-----5p-0-----5------|-/7----7--7----7--7----|--7--------5--------|
--0-----4p-0-----4------|-/6----6--6----6--6----|--6--------4--------|
-----6--------6---------|-------8--8----8--8----|--8--------6--------|
------------------------|-----------------------|--------------------|
------------------------|-----------------------|--------------------|


                                               *                      
-----------------------|-----------4--------|-/6----6--6----6--6----|
--/7----7--7----7--7---|--7--------5--------|-/7----7--7----7--7----|
--/6----6--6----6--6---|--6--------4--------|-/6----6--6----6--6----|
--/8----8--8----8--8---|--8--------6--------|-/8----8--8----8--8----|
-----------------------|--------------------|-----------------------|
-----------------------|--------------------|-----------------------|


                       *                                                 
--6--------7--------|-/9-----14--14----14--14----|--14\---------------||
--7--------9--------|-/11----14--14----14--14----|--14\---------------||
--6--------9--------|-/11----15--15----15--15----|--15\---------------||
--8--------9--------|-/11----16--16----16--16----|--16\---------------||
--------------------|----------------------------|--------------------||
--------------------|----------------------------|--------------------||

* - slide up for previous chord


Rhythm Guitar

Palm mute ** to **
                        G#m
                        **                                                   
E||------------------|-------------------------|-------------------------|
B||------------------|-------------------------|-------------------------|
G||------------------|-------4----4-------4----|-------4----4-------4----|
D||------------------|-------6----6-------6----|-------6----6-------6----|
A||------------------|---------------6---------|---------------6---------|
E||------------------|--4----------------------|--4----------------------|


                                                                              
-------------------------|-------------------------|-------------------------|
-------------------------|-------------------------|-------------------------|
-------4----4-------4----|-------4----4-------4----|-------4----4-------4----|
-------6----6-------6----|-------6----6-------6----|-------6----6-------6----|
---------------6---------|---------------6---------|---------------6---------|
--4----------------------|--4----------------------|--4----------------------|


                                                                             
-------------------------|-------------------------|-------------------------|
-------------------------|-------------------------|-------------------------|
-------4----4-------4----|-------4----4-------4----|-------4----4-------4----|
-------6----6-------6----|-------6----6-------6----|-------6----6-------6----|
---------------6---------|---------------6---------|---------------6---------|
--4----------------------|--4----------------------|--4----------------------|


 E                                                                             
-------------------------|-------------------------|-------------------------|
-------------------------|-------------------------|-------------------------|
-------1----1-------1----|-------1----1-------1----|-------1----1-------1----|
-------2----2-------2----|-------2----2-------2----|-------2----2-------2----|
---------------2---------|---------------2---------|---------------2---------|
--0----------------------|--0----------------------|--0----------------------|

                            F#                               E  
                    **                                                 
-------------------------|--2----2--2----2--2----|--2--------0--------|
-------------------------|--2----2--2----2--2----|--2--------0--------|
-------1----1-------1----|--3----3--3----3--3----|--3--------1--------|
-------2----2-------2----|--4----4--4----4--4----|--4--------2--------|
---------------2---------|--4----4--4----4--4----|--4--------2--------|
--0----------------------|--2----2--2----2--2----|--2--------0--------|

  F#                               E           F#
                                                                     
--2----2--2----2--2----|--2--------0--------|--2----2--2----2--2----|
--2----2--2----2--2----|--2--------0--------|--2----2--2----2--2----|
--3----3--3----3--3----|--3--------1--------|--3----3--3----3--3----|
--4----4--4----4--4----|--4--------2--------|--4----4--4----4--4----|
--4----4--4----4--4----|--4--------2--------|--4----4--4----4--4----|
--2----2--2----2--2----|--2--------0--------|--2----2--2----2--2----|

           E           F#
                                      
 Comments (click here to add a non-facebook comment)
Home | FAQs | Privacy | Terms | Advertise | Contact
Top 100 Tab Sites