Give Kudos?
Are you sure you want to give kudos to axehappy?

Add To Songbook?
Are you sure you want to add this song to your songbook?


2,719 bands | 35,141 songs
Search: Register FREE! | Login
Browse Songs:
Browse Bands:
Tool Panel
Discuss This Song

1 2 3 4 5



Eric Heatherly - Flowers On The Wall (Lead)
Submitter: axehappy (53) on 1/20/02
Month Views: 13 | Total Views: 6,640
Moderator: wiseguymarshall | Report This Song?
Song Tools

Comment

Songbook

Kudos

Show Chords

Print

Eric Heatherly - Flowers On The Wall (lead solo)

By axehappy - axehappy at countrytabs.com

***********************************************************************

brb   =   bend, return, and re-bend          \   =   slide down

h     =   hammer-on                          x   =   dead note

pbr   =   pre-bend and release               b   =   bend

/     =   slide up                           p   =   pulloff

***********************************************************************



E--------------------------------------------7-x-4--------------------
B--6brb-------------------------------------4-----x-7-x-4-------------
G--6brb-4--4--------------------------4-6-6b-------------6pbr-4-6-4b--
D--------6--6--4------------------------------------------------------
A---------6---6-6\4-2---2--------4h5h6--------------------------------
E--------------------4-2-4--2h3h4-------------------------------------


E-------------------------------------------------------------
B------------------------------------------5-5-5-5p0-5p0-5/7--
G-------6-4b-------------------------------4-4-4-4p0-4p0-4/6--
D--6-6-6----6-4--------2---------2--2-2-4/6---6-----6---6-----
A--------------2----------------------------------------------
E---------------4-3-2-0-0-0-0-2/4-----------------------------


E----------------------------------4/--6-6--6-6--6---7/-9---
B--7-7--7-7--7---5/--7-7--7-7--7---5/--7-7--7-7--7---9/-11--
G--6-6--6-6--6---4/--6-6--6-6--6---4/--6-6--6-6--6---9/-11--
D--8-8--8-8--8---6/--8-8--8-8--8---6/--8-8--8-8--8----------
A-----------------------------------------------------------
E-----------------------------------------------------------


E--14-14--14-14--14\----|
B--14-14--14-14--14\----|
G--16-16--16-16--16\----|
D--15-15--15-15--15\----|
A-----------------------|
E-----------------------|
 Comments (click here to add a non-facebook comment)
Home | FAQs | Privacy | Terms | Advertise | Contact
Top 100 Tab Sites