Give Kudos?
Are you sure you want to give kudos to eric wilson?

Add To Songbook?
Are you sure you want to add this song to your songbook?


2,719 bands | 35,141 songs
Search: Register FREE! | Login
Browse Songs:
Browse Bands:
Tool Panel
Discuss This Song

1 2 3 4 5



Eric Heatherly - I Know You're In There Somewhere (Chord)
Submitter: eric wilson (2) on 9/14/03
Month Views: 7 | Total Views: 2,465
Moderator: wiseguymarshall | Report This Song?
Song Tools

Comment

Songbook

Kudos

Show Chords

Print

Eric Heatherly - I Know You're In There Somewhere
(Key=D)

Tabbed by: eric wilson

*****Use Drop D Tuning***********
--------------------------------------------------------------------
Chord shapes I use: (these are drop D forms of the chords)

 	  	    Dm= 000231           A7= x02020

 	  	    Gm= 555786
--------------------------------------------------------------------

Intro: Dm  A7  Gm  A7  Dm

Verse 1:
             Dm             A7
I could tell myself, I'm so over this.
                                     Dm
That your memory vanished, into thin air.
             Dm                      A7
I could just pretend you don't haunt me no more.
                                        Dm
Even though I know, you're in there somewhere.

Bridge:
Gm                      Dm
Deep down inside me wherever I go.
Gm                       Dm          A7
There in the shadows you hide like a ghost.

Verse 2:
              Dm                     A7
Whispering my name, you tease and torment me so.
                                             Dm
Making sure that I know, you're in there somewhere.

Solo: Dm  A7  Gm  A7  Dm

Bridge 2:
Gm                       Dm
You cast a spell I could never erase.
     Gm                        Dm        A7
I'll carry that curse till the end of my days.


Verse 3:
Dm
Could try to love again.
        A7
Open my heart and soul.
                                          Gm
Whao whao but I know, you're in there somewhere.

          A7                          Dm       
Whao whao I know, you're in there somewhere.

Outro:(play intro)

---------------------------------------------------------------------------
    
    / = slide up      br = bend & release


Intro:
*****Drop D tuning******

E---------------------------------------------------------------------------
B---------------------------------------------------------------------------
G---------------------------------------------5/6-----------------------------
D------------------0-------------0-7-7/8-8-8-8-----7-6-5/6-5--3-0-3-0----------
A---------0---0-0-5-7/8-7---0-0-5--------------------------------------------
D-0-2-3-5--------------------------------------------------------------2br-0- 
 Comments (click here to add a non-facebook comment)
Home | FAQs | Privacy | Terms | Advertise | Contact
Top 100 Tab Sites