Give Kudos?
Are you sure you want to give kudos to eric wilson?

Add To Songbook?
Are you sure you want to add this song to your songbook?


2,751 bands | 35,343 songs
Search: Register FREE! | Login
Browse Songs:
Browse Bands:
Tool Panel
Discuss This Song

1 2 3 4 5



Eric Heatherly - Nobody Slow Dances Anymore (Chord)
Submitter: eric wilson (1) on 9/9/03
Month Views: 13 | Total Views: 2,462
Moderator: wiseguymarshall | Report This Song?
Song Tools

Comment

Songbook

Kudos

Show Chords

Print

Eric Heatherly - Nobody Slow Dances Anymore
(Key= A)

Tabbed by: eric wilson

-----------------------------------------------------------------------
Chord shapes I use:
 	  	    A6/D(no5)= xxx675      A = x02220 or 577655

 	  	           D = xx0232   Dsus2= xx0230

 	  	           E = 022100   Esus4= 022200

 	  	          DM7= xx0222   Cadd9= x32030

 	  	           C = x32010   Asus2= x02200

                           AM7= x02120
            * = barre form
 	  	           C*= 81010988    D*= 101212111010
-----------------------------------------------------------------------

Intro: A6/D(no5) A D  A6/D(no5) A D  A

Verse 1:
A
 Watchin' old movies, here with you girl.

 Gettin' away from the crazy world.
Dsus2
 Pause the picture on our favorite scene,
E                          Esus4   E
 Play the parts and acting out our dreams.

Verse 2:
A
 Light a candle to Marvin Gaye.

 I'll be hanging on every word you say.
Dsus2
 Let the stars in through the french doors.
E                                 Esus4     E
 Pretend we're waltzing cross the ball room floor.

Chorus:
DM7 A   D  DM7  A     D    A
No--bod-y, slow dance-s anymore.

Verse 3:
A
 Driving through the country, top rolled down.

 Laying in the sun and the bliss that we've found.
Dsus2
 A little love and happiness, goes a long way.
E                           Esus4      E
 When your swaying neath an oak tree's shade.

Chorus:
DM7 A   D  DM7  A     D    A
No--bod-y, slow dance-s anymore.

Bridge:
C                   Cadd9            C          Cadd9 C
 These days, we all walk between the rain drops.
C                            Cadd9  C
 We should be dancing in the rai----n.
AM7                                                  A   Asus2  A    
 Everybody's in a hurry, to get where they're goin', girl

 we otta take that time.

Solo: A  D E

Bridge

Chorus:
DM7 A   D  DM7  A     D    A
No--bod-y, slow dance-s anymore.

Chorus:
DM7 A   D  DM7  A     D    A     C*  D*  A (lick at very end below)
No--bod-y, slow dance-s anymore.

---------------------------------------------------------------------
/ = slide up
h = hammer-on

Intro.:

A6/D(no5)   A/C# D/A   A6/D(no5) A/C# D/A       
                                               *Wha effects
E--5--------5----5-----5---------5----5-----------------------
B--6/7------5----7-----6/7-------5----7--5/7----5h7-5---------
G--6--------6----7-----6---------6----7------9--------2h4-4/5-
D----------------7--------------------7-----------------------
A-------------------------------------------------------------
E-------------------------------------------------------------

Lick at very end
E---------------
B-5h7-5---------
G-------2h4-4/5-
D---------------
A---------------
E--------------- 
 Comments (click here to add a non-facebook comment)
Home | FAQs | Privacy | Terms | Advertise | Contact
Top 100 Tab Sites