Give Kudos?
Are you sure you want to give kudos to chickenpicker1?

Add To Songbook?
Are you sure you want to add this song to your songbook?


2,721 bands | 35,142 songs
Search: Register FREE! | Login
Browse Songs:
Browse Bands:
Tool Panel
Discuss This Song

1 2 3 4 5



Eric Heatherly - The Last Man Committed (Solo)
Submitter: chickenpicker1 (1) on 8/5/05
Month Views: 16 | Total Views: 2,130
Moderator: wiseguymarshall | Report This Song?
Song Tools

Comment

Songbook

Kudos

Show Chords

Print

Last Man Committed - Eric Heatherly

Tabbed by Chickenpicker1

6 August 2005


***********************************************************************
b     =   bend                              /   =   slide up    

pb    =   pre-bend                          \   =   slide down
                         
pbr   =   pre-bend and release              h   =   hammer-on

brb   =   bend, return, and re-bend         p   =   pulloff 

br    =   bend and release                  ~   =   Vibrato

***********************************************************************


E||-----------------------|-------------------------|
B||-----------------------|-----------8p-7----------|
G||--9b-9pb-9pbr-h7~------|-----7--9--------9--7----|
D||-----------------------|--7----------------------|
A||-----------------------|-------------------------|
E||-----------------------|-------------------------|


                                                   Rest                  
------------------------|----------------------|------------------|
------------------------|----------------------|------------------|
--9p-7h-9/-11~---9/-11--|----------------------|------------------|
------------------------|--11~\----------------|------------------|
------------------------|----------------------|------------------|
------------------------|----------------------|------------------|


                                                     **                   
-------------------------|------------------------|--------------------|
-------------------------|----------------10--12--|--12brb~-\----------|
--12pbr---11p-9h-11~-----|------------11----------|--------------------|
-------------------------|------------------------|--------------------|
-------------------------|------------------------|--------------------|
-------------------------|------------------------|--------------------|


                                                                            
------------------|--14p-12----12p-10----10p-9--|--------------------------|
------------------|------------10---------------|----12br-----10h-12p-10---|
------------------|-----------------------------|--------------------------|
------------------|-----------------------------|--------------------------|
------------------|-----------------------------|--------------------------|
------------------|-----------------------------|--------------------------|


                                                          
------------------------------|--10p-9------------------||
--10--10~-------------10h-12--|---------12--10~\--------||
----------------10/12---------|-------------------------||
------------------------------|-------------------------||
------------------------------|-------------------------||
------------------------------|-------------------------||



** 1st bend is a semi tone (1 fret) rebend is a full tone (2 frets).  
   Apply vibrato to rebend and hold for two bars. Slide out at the end.


Have Fun.

Cheers

Brendan

 Comments (click here to add a non-facebook comment)
Home | FAQs | Privacy | Terms | Advertise | Contact
Top 100 Tab Sites