Give Kudos?
Are you sure you want to give kudos to chickenpicker1?

Add To Songbook?
Are you sure you want to add this song to your songbook?


2,719 bands | 35,141 songs
Search: Register FREE! | Login
Browse Songs:
Browse Bands:
Tool Panel
Discuss This Song

1 2 3 4 5



Eric Heatherly - Way Down (Tab)
Submitter: chickenpicker1 (1) on 7/31/05
Month Views: 12 | Total Views: 2,629
Moderator: wiseguymarshall | Report This Song?
Song Tools

Comment

Songbook

Kudos

Show Chords

Print

Way Down
Written by Eric Heatherly
From the album "The East Side of Life"
Tabbed 31/7/05
Corrections welcome


I've included the chords and tabbed the riff used in the intro and as the 
instrumental break.  Eventually I'll tab the remainder of the song.  Cheers

Intro  G#m - Includes riff below

1st Verse


B
Years of blind devotion
G#m
Shameless self promotion
B                             G#m
A million miles in this Chevy van
 	     B
Itís been a lovely deconstruction
  G#m
A winding road to nothing
   B                        G#m
My feet have never left the ground
      E       F#     B
I was working my way down


2nd Verse

B
Took one step up the ladder
G#m
Tried to dress so dapper
B 	  	  	 G#m
Guess Iím not a company man
      B
Seen enough consolidation   
G#m
Liviní in a pink slip nation
B                         G#m
They can keep their noses brown
        E       F#     B
Iíll be working my way down

Chorus

G#m                     E
Working my way down the highway
G#m                        E
Barely getting by but Iíve got it made
C#m                  A
Playiní my guitar in town after town
A       B      E
Working my way down


Instrumental:  See Riff below - played over G#m

3rd Verse

B
I ainít no three-piece suiter
    G#m
But donít call me a loser
      B 	  	  	              G#m
Cause I could steal your woman for a song
     B
Like Elvis leaviní Tupelo
G#m
When I hit the radio
B                   G#m
I wonít be turniní around
        E       F#     B
Iíll be working my way down

Chorus

G#m                     E
Working my way down the highway
G#m                        E
Barely getting by but Iíve got it made
C#m                  A
Playiní my guitar in town after town
A       B      E
Working my way down
        A       B           
Iíll be working my way 
A       B 
Working my way
A       B      E
Working my way down

Outro

G#m


Riff


E||----------------------|------------------------|-----------------------|
B||----------------------|---------------------3/-|--4~-------------------|
G||---------/4--4--3--3--|--------3----4----6-----|----------/4--4--3--3--|
D||----------------------|--6--6------------------|-----------------------|
A||----------------------|------------------------|-----------------------|
E||----------------------|------------------------|-----------------------|


                                                                          
------------------------|-----------------------|------------------------|
------------------------|-----------------------|---------------------3/-|
------------------------|----------/4--4--3--3--|--------3----4----6-----|
--6--6--4----6----4-----|-----------------------|--6--6------------------|
---------------------5/-|--6/-------------------|------------------------|
------------------------|-----------------------|------------------------|


                                                              
-----------------------|------------------------|-----------||
--4~-------------------|------------------------|-----------||
----------/4--4--3--3--|------------------------|-----------||
-----------------------|--6--6--4----6----4-----|-----------||
-----------------------|---------------------5/-|--6/-------||
-----------------------|------------------------|-----------||



 
 Comments (click here to add a non-facebook comment)
Home | FAQs | Privacy | Terms | Advertise | Contact
Top 100 Tab Sites