Give Kudos?
Are you sure you want to give kudos to chickenpicker1?

Add To Songbook?
Are you sure you want to add this song to your songbook?


2,719 bands | 35,141 songs
Search: Register FREE! | Login
Browse Songs:
Browse Bands:
Tool Panel
Discuss This Song

1 2 3 4 5



Eric Heatherly - When A Heart Begins To Drift (solo) (Solo)
Submitter: chickenpicker1 (0) on 9/2/05
Month Views: 12 | Total Views: 2,033
Moderator: wiseguymarshall | Report This Song?
Song Tools

Comment

Songbook

Kudos

Show Chords

Print

When A Heart Begins To Drift (Guitar Solo)

By:	Eric Heatherly

Tabbed by: Chickenpicker1

3 September 2005

Short but very sweet.  

The last bar is the first bar of the chorus.

Have fun

Cheers

Brendan

***********************************************************************

brb    =  bend release and bend              \   =   slide down

h     =   hammer-on                          .   =   stacato note

br    =   bend and release                   /   =   slide up 

b     =   bend                               p   =   pulloff  

~     =   Vibrato
    
***********************************************************************

Lead Solo


    G                         D ~                  A       .  .  ~            
E||---------------10---------|--------------------|------------------------|
B||---10brb-----------10br8--|--10~---------------|-/10--------------------|
G||--------------------------|--------------------|-/11----9--9--9~---7----|
D||--------------------------|--------------------|------------------------|
A||--------------------------|--------------------|------------------------|
E||--------------------------|--------------------|------------------------|


D       .   .   ~             G ~                     D ~                     
------------------------------|-----------------------|--------------------|
-/10--------------------------|-----------------------|--------------------|
-/11--------------------------|-----------------------|--------------------|
--------12--12--12~---11h-12--|--9~-----------12--11--|--------------------|
------------------------------|-----------------------|--12~------\--------|
------------------------------|-----------------------|--------------------|


A                                          ~             G ~                    
------------12------------|--12b---12--10--9~-----------|---------------------||
--12b-----------12br--10--|---------------------12br-p10|h12~-----------------||
--------------------------|-----------------------------|---------------------||
--------------------------|-----------------------------|---------------------||
--------------------------|-----------------------------|---------------------||
--------------------------|-----------------------------|---------------------||


                    


 Comments (click here to add a non-facebook comment)
Home | FAQs | Privacy | Terms | Advertise | Contact
Top 100 Tab Sites