Give Kudos?
Are you sure you want to give kudos to tyler1501?

Add To Songbook?
Are you sure you want to add this song to your songbook?


2,733 bands | 35,225 songs
Search: Register FREE! | Login
Browse Songs:
Browse Bands:
Tool Panel
Discuss This Song

1 2 3 4 5



Ernest Tubb - Have You Ever Been Lonely (Lead)
Album: Favorites (1952)
Submitter: tyler1501 (6) on 10/14/05
Month Views: 4 | Total Views: 3,601
Moderator: coffeesucker | Report This Song?
Song Tools

Comment

Songbook

Kudos

Show Chords

Print

HAVE YOU EVER BEEN LONELY	
Guitarist: Pete Mitchell

KEY: C

INTRO:
 N/C               G                             C
E---------------------------------------------------------------------8-
B-8--7--8--7--8--10/12--10--12-12p10----6--8--6--5------------------8---
G---------------------------------------------------8\7--5----7--9------
D-----------------------------------------------------------------------
A-----------------------------------------------------------------------
E-----------------------------------------------------------------------


SOLO:
  C              F               C                         G
E----------------------------------------------------------------------
B-8--7--8--7--8--8/10--8--10--10p8-------------------------------------
G-------------------------------------5--7--9--10--9h10p9--7-----------
D----------------------------------------------------------------------
A----------------------------------------------------------------------
E----------------------------------------------------------------------
 
  G                                    Em
E----------------------------------------------------------------------
B-6--5--6--5--6--6/8--6------------------------------------------------
G--------------------------7--6--7--8--9-------------------------------
D----------------------------------------------------------------------
A----------------------------------------------------------------------
E----------------------------------------------------------------------
 Comments (click here to add a non-facebook comment)
Home | FAQs | Privacy | Terms | Advertise | Contact
Top 100 Tab Sites