Give Kudos?
Are you sure you want to give kudos to tyler1501?

Add To Songbook?
Are you sure you want to add this song to your songbook?


2,733 bands | 35,225 songs
Search: Register FREE! | Login
Browse Songs:
Browse Bands:
Tool Panel
Discuss This Song

1 2 3 4 5



Ernest Tubb - It's Been So Long Darlin' (Lead)
Submitter: tyler1501 (6) on 10/3/05
Month Views: 4 | Total Views: 2,574
Moderator: coffeesucker | Report This Song?
Song Tools

Comment

Songbook

Kudos

Show Chords

Print

IT'S BEEN SO LONG DARLIN'
Guitarist: Pete Mitchell

KEY: G

INTRO:
 G                               D                  G
e----------------------------------------------------------------2/3---
B------------3--3h5--3-----------2h3--------------------------3--------
G----0--2/4-------------0--4--5-------5--2--0-----2--0--2--4-----------
D-0--------------------------------------------4-----------------------
A----------------------------------------------------------------------
E----------------------------------------------------------------------


BREAK:
 G           C                                 G
e------------3---3--3--5/6\5--3----------------------------------------
B-1--1--3/5----------------------3h5--5--3--4--5-----------------------
G-------------------------------------------------0--0--2--3--4--------
D----------------------------------------------------------------------
A----------------------------------------------------------------------
E----------------------------------------------------------------------
 
 G                               D                     G
e------------2/3---------------------------------------------------2/3-
B---------3----------------------3h5p3--------------------------3------
G-0--2h4----------4\2--0---4--5---------5--2--0-----2--0--2--4---------
D------------------------------------------------4---------------------
A----------------------------------------------------------------------
E----------------------------------------------------------------------
 Comments (click here to add a non-facebook comment)
Home | FAQs | Privacy | Terms | Advertise | Contact
Top 100 Tab Sites