Give Kudos?
Are you sure you want to give kudos to tyler1501?

Add To Songbook?
Are you sure you want to add this song to your songbook?


2,733 bands | 35,225 songs
Search: Register FREE! | Login
Browse Songs:
Browse Bands:
Tool Panel
Discuss This Song

1 2 3 4 5



Ernest Tubb - Try Me One More Time (Lead)
Album: Favorites (1952)
Submitter: tyler1501 (6) on 10/11/05
Month Views: 4 | Total Views: 2,413
Moderator: coffeesucker | Report This Song?
Song Tools

Comment

Songbook

Kudos

Show Chords

Print

TRY ME ONE MORE TIME
Guitarist: Pete Mitchell

KEY: C

INTRO:

E----------------------------------------------------------------8-
B-5-5--6--7--8----8--6----------------------------------------8----
G-----------------------9/10\9--7----------9\7-----5----7--9-------
D----------------------------------9\7--5-------5------------------
A------------------------------------------------------------------
E------------------------------------------------------------------

SOLO:

E---------------------------------------------------
B-5-5--6-6--7--8----8--8h10--10p8-------------------
G----------------------------------9\7-----------5--
D---------------------------------------5--8--7-----
A---------------------------------------------------
E---------------------------------------------------

E---------------------------------------------------
B------------------8-8-8--10--9--8h10p8-------------
G---------------------------------------------------
D-7-6-5----5--7/9-----------------------------------
A---------------------------------------------------
E---------------------------------------------------
 Comments (click here to add a non-facebook comment)
Home | FAQs | Privacy | Terms | Advertise | Contact
Top 100 Tab Sites