Give Kudos?
Are you sure you want to give kudos to Shantel?

Add To Songbook?
Are you sure you want to add this song to your songbook?


2,680 bands | 34,871 songs
Search: Register FREE! | Login
Browse Songs:
Browse Bands:
Tool Panel
Discuss This Song

1 2 3 4 5





Faith Hill - Breathe (Tab)
Album: Breathe (1999)
Submitter: Shantel (87) on 10/8/02 9 comments
Month Views: 69 | Total Views: 24,584
Moderator: Ray Terry | Report This Song?
Song Tools

Comment

Songbook

Kudos

Show Chords

Print

Breathe - Faith Hill
Album: Breathe
Writers: Holly Lamar/Stephanie Bentley	

*Note-The tab is listed at the bottom after the chords 

Chords:
Am7 =   x02010
C9  =   x32030
D   =   xx0232
Dsus2=  xx0230
Dsus=   xx0233
G   =   320003  
G/B =   x2003x 


Intro: Am7  G/B  C9  G/B
       Am7  G/B  C9  C9       


Verse 1:
Am7            G/B            C9      G/B
I can feel the magic floating in the air 
Am7        G/B              C9
Being with you gets me that way
Am7         G/B              C9        G/B
I watch the sunlight dance across your face
        Am7                       Dsus2  D
And I've,  never been this swept away

Verse 2:
Am7                  G/B            C9      G/B
All my thoughts just seem to settle on the breeze 
Am7            G/B                 C9
When I'm lying wrapped up in your arms
Am7                   G/B           C9      G/B
The whole world just fades away the only thing 
      Am7                      D
I hear is the beating of your heart


Chorus:
                G                          Am7
I can feel you breathe, just watching over me
                 C            D
And suddenly I'm melting into you
                         G                 Am7            C  D
There's nothing left to prove baby all we need is just to be
D                 G                       Am7
Caught up in the touch, a slow and steady rush
            C                G/B                Am7  Dsus D
Baby isn't that the way that love's supposed to be  
               Am7     G/B  C  D
I can feel you breathe 
      G
Just breathe 


Interlude: G  Am7  C9  D (x2)


Am7        G/B               C9    G/B
In a way I know my heart is waking up 
Am7        G/B                  C9
As all the walls come tumbling down
Am7              G/B          C9             G/B
Closer than I've ever felt before and I know and 
     Am7                                   D
You know, there's no need for words right now 


CHORUS


Interlude: G  Am7  C9  D (x2)


D                 G                       Am7
Caught up in the touch, a slow and steady rush
            C                G/B                Am7  Dsus D
Baby isn't that the way that love's supposed to be  
               Am7     G/B  C  D
I can feel you breathe 
      G   Am7  C  G/B
Just breathe 


Am7            G/B            C9      G/B
I can feel the magic floating in the air 
Am7        G/B               C9
Being with you gets me that way



Intro:

    (Am7)       (G/B)       (C9)       (G/B)
E----------------------------------------------------
B------1-----------3-----------3---------3-----------
G--------O-O---------O-O--------O-O--------O-O-------
D----2----O------O----O------2---2------O---O--------
A--O-----------2-----------3----------2--------------
E----------------------------------------------------

    (Am7)       (G/B)       (C9)       (C9)strum
E---------------------------------------O----
B------1-----------3-----------3--------3----
G--------O-O---------O-O--------O-O-----O----
D----2----O------O----O------2---2------2----
A--O-----------2-----------3------------3----
E--------------------------------------------


Verse:

    (Am7)       (G/B)       (C9)       (G/B)
E----------------------------------------------------
B------1-----------3-----------3---------3-----------
G--------O-O---------O-O--------O-O--------O-O-------
D----2----O------O----O------2---2------O---O--------
A--O-----------2-----------3----------2--------------
E----------------------------------------------------

    (Am7)       (G/B)       (C9)      
E------------------------------------O---------
B------1-----------3-----------3-------3--1-3--
G--------O-O---------O-O--------O-O------O-----
D----2----O------O----O------2---2-------------
A--O-----------2-----------3-------------------
E----------------------------------------------

    (Am7)       (G/B)       (C9)       (G/B)
E----------------------------------------------------
B------1-----------3-----------3---------3-----------
G--------O-O---------O-O--------O-O--------O-O-------
D----2----O------O----O------2---2------O---O--------
A--O-----------2-----------3----------2--------------
E----------------------------------------------------

    (Am7)                (D)
E-------------O------------------O-Oh2------------
B------1--------1---1--------3---------3-3--------
G--------O-O------O--------2---2-----------2------
D----2----O--------------O------------------------
A--O----------------------------------------------
E-------------------------------------------------


I just strum the chorus so I didn't tab that.



Here is the guitar solo being played in the interludes:

breathe...
  (G)      (Am7)    (C9)     (D)    (G)  (Am7)   (C9)     (D)
E-------------------------------------------------------------
B-------------------------------------------------------------
G-------------------------------------------------------------
D--------------------O-----------------------------O----------
A--2--O--2--3---2--3----3--2--0------2-----3--2--3----3--2--O-
E-------------------------------------------------------------

 Comments (click here to add a non-facebook comment)
Here is the solo I play for better or worse...

e ----------------------------
b ---10-12-13-15~~--13p12-----
g -12---------------------12~~
d ----------------------------
a ----------------------------
e ----------------------------

e -3--------------------------
b -3--------------------------
g -0-4-4h5-4-5-5s7-5-4-2~~~~~~ Twice
d -0--------------------------
a -2--------------------------
e -3--------------------------

Telemon
-Telemon | 11/18/2002
Here is the solo I play for better or worse...

1st Prelude Dirty Guitar
e ----------------------------
b ---10-12-13-15~~--13p12-----
g -12---------------------12~~
d ----------------------------
a ----------------------------
e ----------------------------

Lead Part Dirty Guitar
e -3--------------------------
b -3--------------------------
g -0-4-4h5-4-5-5s7-5-4-2~~~~~~ Twice
d -0--------------------------
a -2--------------------------
e -3--------------------------

Outro Dirty Guitar
e ----------------------------
b ---10-12-13-15~~--12-13-15--
g -12-------------------------
d ----------------------------
a ----------------------------
e ----------------------------

e ----------------------------
b ---10-12-13-15~~--12h13p12--
g -12----------------------12~
d ----------------------------
a ----------------------------
e ----------------------------

Telemon
-Telemon | 11/18/2002
hi im a begginer...whats it mean when its g/b? etc...i have no idea thank you

-jeffm16316 | 4/30/2004
It is a G chord with a B as the bass note
(where in a normal G chord the bass note would be G)
-Shantel | 5/1/2004
great job... love your tabs!!


-EMRLDEYZS | 7/13/2004
great tab great song
-ronbo | 3/19/2005
tab kick ass as usual, thanks!
-KnoxGodoy3 | 10/15/2005
Nice tab work Shantel!
-bluegrass30009 | 1/12/2006
Will you transcribe "I Want You" from the
Fireflies album?
-EleanorFlavin | 1/23/2006
Home | FAQs | Privacy | Terms | Advertise | Contact
Top 100 Tab Sites