Give Kudos?
Are you sure you want to give kudos to copperheadroad?

Add To Songbook?
Are you sure you want to add this song to your songbook?


2,404 bands | 31,908 songs
Search: Register FREE! | Login
Browse Songs:
Browse Bands:
Tool Panel
Discuss This Song

1 2 3 4 5





Flatt & Scruggs - Foggy Mountain Special (mandolin Tab) (Tab)
Submitter: copperheadroad (0) on 12/29/04
Month Views: 111 | Total Views: 7,498
Help! We need a moderator for this artist. | Report This Song?
Song Tools

Comment

Songbook

Kudos

Show Chords

Print

E-7-7-3s4-0-0-------0-3p2-0-----7-0-3s4-0-0-------0-3p2
A-------------4-2-4---------4-2-------------4-2-4------
D------------------------------------------------------
G------------------------------------------------------


-0-----3s12-12-12-12-12-12-12-12-0-7-0-9-0-3s4-0-----0-
---4-2-------------------------------------------4-2---
-------------------------------------------------------
-------------------------------------------------------


-----0-----0-7-0-10-9-7-0-3s4-----0-3p2-0-----0-3-3-0--
-4-2---4-2--------------------2-4---------4-2----------
-------------------------------------------------------
-------------------------------------------------------


---0-3-0---0-------------------------------------------
-4-------4---------------------------------------------
-------------------------------------------------------
-------------------------------------------------------
 Comments (click here to add a non-facebook comment)
Home | FAQs | Privacy | Terms | Advertise | Contact
Top 100 Tab Sites