Give Kudos?
Are you sure you want to give kudos to lmofle?

Add To Songbook?
Are you sure you want to add this song to your songbook?


2,715 bands | 35,121 songs
Search: Register FREE! | Login
Browse Songs:
Browse Bands:
Tool Panel
Discuss This Song

1 2 3 4 5



Foster & Lloyd - Crazy Over You (Intro)
Album: Foster & Lloyd (1987)
Submitter: lmofle (344) on 4/3/02
Month Views: 11 | Total Views: 4,593
Sound Byte: Listen
Moderator: lmofle | Report This Song?
Song Tools

Comment

Songbook

Kudos

Show Chords

Print

E---------------------------------|
B---------------------------------|
G---------------------------------|
D--------0-----0-2-----0-2-0------|
A----2/4---2/4-----2/4------------|
E----------------------------3b-0-|

E---------------------------------|
B---------------------------------|
G---------------------------------|
D--------0-----0-2-----0-2-0------|
A----2/4---2/4-----2/4------------|
E----------------------------3b-0-|

E----------------------------------------------|
B----------------------------------------------|
G----------------------------------------------|
D--------0-----0-2-----02/5---5\4---4\2-------|
A----2/4---2/4-----2/4-------------------------|
E----------------------------------------3b-0--|

 Comments (click here to add a non-facebook comment)
Home | FAQs | Privacy | Terms | Advertise | Contact
Top 100 Tab Sites