Give Kudos?
Are you sure you want to give kudos to yinielin?

Add To Songbook?
Are you sure you want to add this song to your songbook?


2,732 bands | 35,202 songs
Search: Register FREE! | Login
Browse Songs:
Browse Bands:
Tool Panel
Discuss This Song

1 2 3 4 5



Frankie Laine - Ghost Riders In The Sky (Lead)
Submitter: yinielin (0) on 3/29/03 1 comment
Month Views: 1 | Total Views: 6,762
Help! We need a moderator for this artist. | Report This Song?
Song Tools

Comment

Songbook

Kudos

Show Chords

Print

Frankie Laine, Ghost Riders in the Sky
By:Yinielin

Saw the chords to this and I knew the lead part so here it is. 

E---------------------------------------------------
B---------------------------------------------------
G---------------------------------------------------
D-----------------------------------------------0-2-
A---0-0-0-2-3-3-3-0---------------0-0-0-2-3-3-3-----
E-0-----------------3-3-3-0-3---0-------------------

E----------------------------------------------------------
B----------------------------------------------------------
G----------------2-2--2-2----------------------------------
D-2-2---2--2-2-2----------2-2------------------------------
A-----3-----------------------3-0----------3-3---------3-3-
----------------------------------0-1-1-1------0-1-1-1-----

E----------------
B----------------
G----------------
D----------------
A-3-3-0-0---0----
E---------3------
 Comments (click here to add a non-facebook comment)
THIS IS AN OKAY VERSION BUT IT AINT RIGHT

-crosscanadianmd | 5/5/2005
Home | FAQs | Privacy | Terms | Advertise | Contact
Top 100 Tab Sites