Give Kudos?
Are you sure you want to give kudos to Deleted Member?

Add To Songbook?
Are you sure you want to add this song to your songbook?


3,264 bands | 37,945 songs
Search: Register FREE! | Login
Browse Songs:
Browse Bands:
Tool Panel
Discuss This Song

1 2 3 4 5



Garth Brooks - Against The Grain (Solo)
Album: Ropin' the Wind (1991)
Submitter: Deleted Member (0) on 6/20/03
Month Views: 573 | Total Views: 6,406
Moderator: Ray Terry | Report This Song?
Song Tools

Comment

Songbook

Kudos

Show Chords

Print

Against the Grain (Solo)
                   Solo performed by Chris Leuzinger

---------------------
Song: Against the Grain
Artist: Garth Brooks                     
CD: Ropin' the Wind
--------------------

Transcribed by Abe Linc twitch4mi at hotmail.com>

***********************************************************************

h   =   hammer-on                          p   =   pull-off

b   =   bend                               r   =   release bend 

\   =   slide                              

pbrp =   pre-bend & release bend then pull-off

bh  =   bend & hold                        

!   =   natural harmonic

***********************************************************************


Solo:
e-----------------------------------------------------------5---------|
B-------8---8-----8-8----8---8---------8---8-------3---------5pbr-----|
G-------7bh-7rp5--7-7-5--5h6-5h6-------5h6-5h6------2pbrp0-------5----|
D---------------7------7---------7p5-----------7\---------------------| 
A-3b-0-------------------------------7--------------------------------|
E---------------------------------------------------------------------|

e-------------------0----1p0h1-2p1h2-3p2h3-4p3h4-5p4h5-6p5h6-7p6h7----|
B-2p1h2-3p2h3-4p3h4--4\5----------------------------------------------|
G---------------------------------------------------------------------|
D---------------------------------------------------------------------| 
A---------------------------------------------------------------------|
E---------------------------------------------------------------------|

e-8p7h8-9p8h9-10p9h10h12-15b-15b---------------------12p0-0-11p0-0----|
B----------------------------------------12!-----7!-------------------|
G-------------------------------------12!------7!---------------------|
D----------------------------------12!-------7!-----------------------| 
A---------------------------------------------------------------------|
E---------------------------------------------------------------------|

e-10p0-0-9p0-0-5h6-5h6--|
B-----------------------|
G-----------------------|
D-----------------------| 
A-----------------------|
E-----------------------|
 Comments (click here to add a non-facebook comment)
Home | FAQs | Privacy | Terms | Advertise | Contact
Top 100 Tab Sites