Give Kudos?
Are you sure you want to give kudos to Deleted Member?

Add To Songbook?
Are you sure you want to add this song to your songbook?


3,285 bands | 38,021 songs
Search: Register FREE! | Login
Browse Songs:
Browse Bands:
Tool Panel
Discuss This Song

1 2 3 4 5



Garth Brooks - Friends in Low Places (Lead)
Album: The Ultimate Hits (2007)
Submitter: Deleted Member (0) on 2/1/02 2 comments
Month Views: 301 | Total Views: 27,072
Moderator: Ray Terry | Report This Song?
Song Tools

Comment

Songbook

Kudos

Show Chords

Print

Garth Brooks-Friends in Lower Places  (Guitar Solo)

pbr   =   pre-bend & release                 /   =   slide up

\     =   slide down                         bh  =   bend & hold

br     =   bend and release 		     b    =   bend

h      =    hammer			     ~~~~   = vibrato

p      =   pulloff

E-------------------------------------------------------------
B---5bh-(5)(5)(5)(5) r--2-------------------------------------
G--------------------------4----4b-----4br----2~~~~~~~--------
D-------------------------------------------------------------
A---------------------------------------------------------\12-
E-------------------------------------------------------------




E-------------------------------------------------------------
B-----------------------5---5---5-----5----5---5----5/7----5--
G-----------------------4b--4b--4br---2----4---2--------------
D-------------2---2-------------------------------------------
A--0----2/4---------------------------------------------------
E-------------------------------------------------------------


E-------------------------------------------------------------
B-------------------------------------------------------------
G-4brp2---4b------4~~~~~~~~~----------------------------------
D-------------------------------4br 2-------------------------
A-------------------------------------------2br--------0------
E-------------------------------------------------------------



E-------------------------------------------------------------
B-------------------------------------------------------------
G-------------------------------------------------------------
D-------------2-----------------------------------------------
A--0---3/4--------4/2------0----------------------------------
E-------------------------------------------------------------
 Comments (click here to add a non-facebook comment)
Get the bends right and this tab will sound really good
-wardo | 4/2/2004
Seems pretty good to me
-eddojullio | 11/2/2005
Home | FAQs | Privacy | Terms | Advertise | Contact
Top 100 Tab Sites