Give Kudos?
Are you sure you want to give kudos to Deleted Member?

Add To Songbook?
Are you sure you want to add this song to your songbook?


3,284 bands | 38,006 songs
Search: Register FREE! | Login
Browse Songs:
Browse Bands:
Tool Panel
Discuss This Song

1 2 3 4 5



Garth Brooks - If Tomorrow Never Comes (Intro)
Album: Double Live (2008)
Submitter: Deleted Member (0) on 1/29/02 4 comments
Month Views: 621 | Total Views: 30,022
Moderator: Ray Terry | Report This Song?
Song Tools

Comment

Songbook

Kudos

Show Chords

Print

Garth Brooks - If Tomorrow Never Comes  (Intro and Picking Pattern)



    G          D/G  	C/G     G          Am
E---------------------------------|--------------0------------------|
B---0------0-------3-------1----0-|-----------1---------------------|
G--------0----------------------0-|--------2------------2---0-------|
D------0------2/4-----0/2-------0-|-----2------------2--------------|
A---------------------------------|--0------------------------------|
E---3---------------------------3-|---------------------------------|
				   Sometimes....

  D			     C/G	   G	  Am/G	     G
E---------0--2-----------|-------3---------------|------3-------------|
B------3----------3------|-1--------1--0---------|----1------0--------|
G---2----------2---------|---------------------0-|-2------2--------0--|
D-0-----------------0----|----2-------------0----|--------------0-----|
A------------------------|-----------------------|--------------------|
E------------------------|-3-----------3---------|-----------3--------|
	I lie awake.........					  She's..


 D		   Am7		D		 C
E------------2-----0----------|------------2-----0-------------|
B--------3------------------1-|---------3----------------------|
G----2-------------------0----|----2---------------------0-----|
D-0-------------------2-------|-0--------------------2---------|
A------------------0----------|------------------3-------------|
E-----------------------------|--------------------------------|
..lost in .......					...dark


  G		C/G		G
E----------3---------------3--|-3---------------------------|
B----------------------1------|-0---------------------------|
G-------0----------0----------|-0---------------------------|
D----0--------0h2-------------|-0---------------------------|
A-----------------------------|----------------------------|
E-3---------------------------|-3---------------------------|


This should be enough to get you going.
 Comments (click here to add a non-facebook comment)
this tab is awseome. dude if you get tab the whole thing out you would
be the s@#%. I think this is one of his best songs.
-fatsig02 | 4/23/2003
man, oh man it would be greatly appreciated if the rest of the first verse could be tabbed as well as the first part was, especially for us begginners.
-ihavethetoolsdc | 3/5/2004
hey man, this tabs is absolutely perfect. do you know the rest of the song??
-pap2h | 2/7/2005
Great tab!!!!!
-mo_freestyle | 3/5/2005
Home | FAQs | Privacy | Terms | Advertise | Contact
Top 100 Tab Sites