Give Kudos?
Are you sure you want to give kudos to matellmon?

Add To Songbook?
Are you sure you want to add this song to your songbook?


2,711 bands | 35,094 songs
Search: Register FREE! | Login
Browse Songs:
Browse Bands:
Tool Panel
Discuss This Song

1 2 3 4 5



Garth Brooks - Nobody Gets Off In This Town (Solo)
Album: Garth Brooks 2007 (2007)
Submitter: matellmon (72) on 1/23/03
Month Views: 24 | Total Views: 4,741
Moderator: Ray Terry | Report This Song?
Song Tools

Comment

Songbook

Kudos

Show Chords

Print

Nobody Gets Off In This Town
By Garth Brooks

Tabbed by Matellmon



Intro:
e------------------------------------7-6-5-3s4----------------
B-11s12---10s11----9s10----8s9-----x-----------5--------------
G------13-------12------11-----10-x--------------4------5-4-4-
D--------------------------------------------------7--6-------
A-------------------------------------------------------------
E-------------------------------------------------------------


Solo:
e-----------------------------------------------13-----------------------------
B-8b-(8)s6-8---8b-(8)s6-8----8b-(8)s6-8-6----13---16b-16-13-------------------
G-------------------------------------------14---------------15b(15)s13---15---
D-----------------------------------------------------------------------15---15
A------------------------------------------------------------------------------
E------------------------------------------------------------------------------


e--------------------------------3b(3)s-1-3b-----8-7-6-4s5---------------
B-13------------------3-6---3-6----------------------------6-------------
G-13-14-----------2S3-----4-------------------3--------------5-----4-5-6-
D-------15-13-15S----------------------------------------------8-7-------
A------------------------------------------------------------------------
E------------------------------------------------------------------------
 Comments (click here to add a non-facebook comment)
Home | FAQs | Privacy | Terms | Advertise | Contact
Top 100 Tab Sites