Give Kudos?
Are you sure you want to give kudos to yinielin?

Add To Songbook?
Are you sure you want to add this song to your songbook?


3,302 bands | 38,082 songs
Search: Register FREE! | Login
Browse Songs:
Browse Bands:
Tool Panel
Discuss This Song

1 2 3 4 5



Garth Brooks - Rodeo (guitar) (Intro)
Album: Double Live (2008)
Submitter: yinielin (5) on 9/14/03 2 comments
Month Views: 714 | Total Views: 12,190
Moderator: Ray Terry | Report This Song?
Song Tools

Comment

Songbook

Kudos

Show Chords

Print

By:Yinielin
Garth Brooks, Rodeo

E-------------------------------
B-------------------------------
G-------------------------------
D-5-7--0h2-2--5/2-2--0h2-2-5-7--
A-5-7--0h2-2--5/2-2--0h2-2-5-7--
E-3-5----------------------3-5--

E--------------------------
B--------------------------
G--------------------------
D-0h2-2--5/2-2--0h2-2-5-7--
A-0h2-2--5/2-2--0h2-2-5-7--
E---------------------3-5--

OR

E-------------------------------------
B-------------------------------------
G-12-14--7/9-9--12/9-9--7/9-9--12-14--
D-12-14--7/9-9--12/9-9--7/9-9--12-14--
A-------------------------------------
E-------------------------------------

E----------------------------------
B----------------------------------
G-7/9-9--12/9-9--7/9-9--12-14------
D-7/9-9--12/9-9--7/9-9--12-14------
A----------------------------------
E----------------------------------
 Comments (click here to add a non-facebook comment)
its great, except the power chords at the begining and end, but other than that good job brother!!
-cowboy78 | 12/27/2003
yea try movin the power chords down a string buddy
-cowboy78 | 12/27/2003
Home | FAQs | Privacy | Terms | Advertise | Contact
Top 100 Tab Sites