Give Kudos?
Are you sure you want to give kudos to axehappy?

Add To Songbook?
Are you sure you want to add this song to your songbook?


3,284 bands | 38,006 songs
Search: Register FREE! | Login
Browse Songs:
Browse Bands:
Tool Panel
Discuss This Song

1 2 3 4 5



Garth Brooks - The Thunder Rolls (Tab)
Album: The Ultimate Hits (2007)
Submitter: axehappy (141) on 1/20/02 5 comments
Month Views: 893 | Total Views: 41,151
Moderator: Ray Terry | Report This Song?
Song Tools

Comment

Songbook

Kudos

Show Chords

Print

Garth Brooks - The Thunder Rolls (picking pattern)

By axehappy - axehappy at countrytabs.com


Play the whole thing through twice, but with only half of the 
intro the second time.

***********************************************************************



INTRO


   Dm           Dm9 Dm           Dm9 Dm           Dm9        
  
E-------------------------------------------------------
B-------5--5h6-5---------5--5h6-5---------5--5h6-5------
G----7-7---7----5--5--7-7---7----5--5--7-7---7----5--5--
D---7-----7-------7--7-----7-------7--7-----7-------7---
A--5--5--5----5--5--5--5--5----5--5--5--5--5----5--5----
E-------------------------------------------------------

   Dm
E----------------------
B-------5--5h6-5-------
G----7-7---7----5--5---
D---7-----7-------7----
A--5--5--5----5--5-----
E----------------------



VERSE


  Dm                 Bb                 A7
E---------------5-------------------------------------------------
B----------------------------6h8-6--------------------------------
G----7-7--7--7--7------7-7--7-----7--7----6-6--6--6-6--6--6-6--6--
D---7----7--7--7--7---8----8-------8------------------------------
A--5--5-5--5--5--5---8--8-8-----8---8----7-7--7--7-7--7--7-7--7---
E---------------------------------------5----5--5----5--5----5----

   Dm                                  Bb
E---------5-------5---------------------------------------
B----6p5-----6p5-----6p5---5--6p5---5---------------------
G----7---7---7---7---7----7---7----7-----7-7--7--7--7--7--
D---7-------7-------7----7---7----7-----8----8--8-----8---
A--5----5--5----5--5----5---5----5-----8--8-8--8--8--8----
E---------------------------------------------------------

   A7                        Dm
E-----------------------------------------------
B-------5-------5-------5---------5--5h6-5------
G----6-6--6--6-6--6--6-6--6----7-7---7----7--7--
D---7----7--7----7--7----7----7-----7------7----
A-----5-------5-------5------5--5--5----5---5---
E--5-------5-------5----------------------------

   C                  A                N/C (and the thunder rolled)
E------------------------------------------------------------------
B----3--3--3h5-----------2----2h3-2--------------------------------
G----5--5-5----5--5------2--2-2---2--------------------------------
D---5--5---------5-5---2-2-2--2---2--------------------------------
A--3--3--3----3-2-----0--0--------0--------------------------------
E------------------------------------------------------------------
 Comments (click here to add a non-facebook comment)
-----------------------------
---3- 3--3--3--3-3-1--1--1---
--2--2-2--2--2--2-2-2--2--2-- X2
-0------0--0--0------0--0--0-
-----------------------------
-----------------------------

You get the drift right?
-samick | 8/31/2002
good as usual axe
-omgalice22 | 2/20/2004
Yea, I have listened to this song on my iPod and there are definitely two guitars goin' .. and yes, I do believe the one guitar has the capo on like you're showing .. All the tabs I've seen from you have been dead on .. you must be a great guitarist and someone fun to jam with .. keep up the good work man
-ordinaryguy | 1/20/2006
Ok I do believe that their is 3 guitars. Because one is for the little solo's found near the ending of the song. The other 2 are, of course, played through the entire song. But that is just my interpretation.
-MikeHorak | 7/15/2008
Ok I do believe that their is 3 guitars. Because one is for the little solo's found near the ending of the song. The other 2 are, of course, played through the entire song. But that is just my interpretation.
-MikeHorak | 7/15/2008
Home | FAQs | Privacy | Terms | Advertise | Contact
Top 100 Tab Sites