Give Kudos?
Are you sure you want to give kudos to Rondo Fondu?

Add To Songbook?
Are you sure you want to add this song to your songbook?


2,680 bands | 34,868 songs
Search: Register FREE! | Login
Browse Songs:
Browse Bands:
Tool Panel
Discuss This Song

1 2 3 4 5





Garth Brooks - Unanswered Prayers - 3 Guitars (Tab)
Album: Double Live (2008)
Submitter: Rondo Fondu (16) on 4/2/04 3 comments
Month Views: 9 | Total Views: 5,904
Moderator: Ray Terry | Report This Song?
Song Tools

Comment

Songbook

Kudos

Show Chords

Print

nanswered Pryers
By Larry B. Bastian, Pat Alger, & Garth Brooks


           
D     xx0232  
F#m7  24225x   
G     320003    
A     x02220         
A/C#  x4222x 
Em    x24432  
D/A   x04232     
D7    xx0212         
Asus4 x02230 
F#m   244222     
Bm7   02203x       
D/F#  200232          
Bm7   x20202   
A6    x02222  
Bm11  020233
Bm11  x20200
G6    320000   
A7    x02020

Gtr I,Gtr II,Gtr III - Standard Tuning 

 Intro
  Slowly Q=66
  D       D/F#      G       Asus4     A
 4/4                                 2/4
  Gtr I
  E E E E E E E E   E E E E E E E E   H
|-----2-------2---|-----3---------0-|-0----||
|-------3-------3-|-------0-----3---|-2----||
|---2-------2-----|---0-------2-----|-2----||
|-0---------------|-----------------|-2----||
|-----------------|---------0-------|-0----||
|---------2-------|-3---------------|------||
|
| Gtr II
| E E E E E E E E   E E E E E E E E   H
|-----5-------5---|-----5---------5-|-5----||
|-------7-------7-|-------8-----5---|-5----||
|---7-------7-----|---7-------7-----|-6----||
|-----------------|-5-------7-------|-7----||
|-5-------9-------|-----------------|------||
|-----------------|-----------------|------||


 Verse 1
  D       D/F#      G
 4/4
  E E E E E E E E   E E E E E E E E
|-----2-------2---|-----3-----------|
|-------3-------3-|-------0-----0-0-|
|---2-------2-----|---0-------0-2-0-|
|-0---------------|-----------------|
|-----------------|-----------------|
|---------2-------|-3-------3-------|
|
| E E E E E E E E   E E E E E E E E
|-----5-------5---|-----5-------5---|
|-------7-------7-|-------8-------8-|
|---7-------7-----|---7-------7-----|
|-----------------|-5-------5-------|
|-5-------9-------|-----------------|
|-----------------|-----------------|


  D   A/C#Bm7 A6    Em11      A     D/A
  E E Q   E E E E   S S E E E E E a E E
|-2---0-----------|-2p0-----------------|
|-3---2---3---2---|---------0-----2h3-2-|
|---2-2---4---2---|-------0-------------|
|-----------4---4-|-2---2-------2-2h4-2-|
|-----------------|-----------0---------|
|-----------------|---------------------|
|
| E E E E E E E E   E   E E E Q   a E E
|---5---5---5---5-|-------5-3-----------|
|-7---5---3---2---|-----3-----2---2h3-2-|
|-7---0---4---2---|-----------2---------|
|-----------------|-2---------2---2h4-2-|
|-----------------|---------------------|
|-----------------|---------------------|


  G       F#m       Bm  A   G   F#m
  E E E E E E E E   E E E E E E E E
|-----------------|-----------------|
|-------0-2-----2-|-3---2---0-------|
|-----0-------2---|-------------2---|
|---0-------4-----|---4---2---0-----|
|-----------------|-2---0---------4-|
|-3-------2-------|---------3---2---|
|
| E E E E E E E E   Q   Q   E E E E
|-----7-5-----5---|-7---5---3---2---|
|---------------7-|-----------3---2-|
|---7-------6-----|-7---6---4---2---|
|-5-------4-------|-----------------|
|-----------------|-----------------|
|-----------------|-----------------|


  Em11    D/F#       G        Asus4     A
                                       2/4
  E E E E E E  E E    E E E E E E E E   H
|------------------|----------------0-|-0----||
|-------0-3--------|--0-----0-3---3---|-2----||
|-----0---2----2---|------0-----2-----|-2----||
|---2-------0----0-|----0-------------|-2----||
|------------------|----------0-------|-0----||
|-0----------------|--3---------------|------||
|
| E E E E E E  E E    E E E E E E E E   H
|-----5------------|------7s5-------5-|-5----||
|-------8-----10-7-|--------------5---|-5----||
|---7-------7------|----7-------7-----|-6----||
|------------------|----------7-------|-7----||
|-7-------9--------|-10---------------|------||
|------------------|------------------|------||


 Verse 2
  D       D/F#      G                 D   A/C#Bm7 A
 4/4
  E E E E E E E E   E E E E E E E E   E E Q   E E E E
|-----2-------2---|-----3-----------|-----0-----------|
|-------3-------3-|-------0-----0-0-|-2---2---3---2---|
|---2-------2-----|---0-------0-2-0-|-3---2---4---2---|
|-0---------------|-----------------|---2-------4---4-|
|-----------------|-----------------|-----------------|
|---------2-------|-3-------3-------|-----------------|
|
| E E E E E E E E   E E E E E E E E   E E E E E E E E
|-----5-------5---|-----5-------5---|---5---5---5---5-|
|-------7-------7-|-------8-------8-|-7---5---3---2---|
|---7-------7-----|---7-------7-----|-7---6---4---2---|
|-----------------|-5-------5-------|-----------------|
|-5-------9-------|-----------------|-----------------|
|-----------------|-----------------|-----------------|
|
| Gtr III
|                                           
| H       H         W                 Q   Q   Q   Q
|-----------------|-----------------|-----------------|
|-----------------|-----------------|-3---2-----------|
|-----------------|-0---------------|---------4---2---|
|-0-------4-------|-----------------|-----------------|
|-----------------|-----------------|-----------------|
|-----------------|-----------------|-----------------|


  Em11      A     D/A   G        F#m          Bm    A   G   F#m
  S S E E E E E a E E    E E E E  E E E E     E E E E E E E E
|-2p0-----------------|-------------------|-------------------|
|---------0-----2h3-2-|--------0--2-----2-|---3---2---0-------|
|-------0-------------|------0--------2---|---------------2---|
|-2---2-------2-2h4-2-|----0--------4-----|-----4---2---0-----|
|-----------0---------|-------------------|---2---0---------4-|
|---------------------|--3--------2-------|-----------3---2---|
|
| E   E E E E E   E E    E E E E  E E E E     Q   Q   E E E E
|-----5---5---5-----5-|------7-5------5---|---7---5---3---2---|
|-7-----5---3-----2---|-----------------7-|-------------3---2-|
|-7-----6---4-----2---|----7--------6-----|---7---6---4---2---|
|---------------------|--5--------4-------|-------------------|
|---------------------|-------------------|-------------------|
|---------------------|-------------------|-------------------|
|
| 
| H         E E   Q      H        H         a Q   Q   Q   Q
|---------------------|-^3----------------|-------------------|
|-3-------------------|-^3-------^2-------|-------------------|
|-0---------------2---|-^4-------^2-------|-2h4---2-----------|
|-2-----------2-------|----------^4-------|-----------5---4---|
|-----------0---------|-------------------|-------------------|
|---------------------|-------------------|-------------------|


  Em11    D/F#       Asus4
                     Gtrs I, II
  W                  E E E E E E E E
                     | | | | | | | |
                     / / / / / / / /

  E E E E E E  E E   W
|------------------|-----------------|
|-------0-3--------|-----------------|
|-----0---2----2---|-----------------|
|---2-------0----0-|-----------------|
|------------------|-----------------|
|-0----------------|-----------------|
|
| E E E E E E  E E   W
|-----5------------|-----------------|
|-------8-----10-7-|-----------------|
|---7-------7------|-----------------|
|------------------|-----------------|
|-7-------9--------|-----------------|
|------------------|-----------------|
|
| H       E E  E E   E E E E E E E E
|--------------2---|---------0-------|
|-----------3----3-|-------3---3-----|
|------------------|-----2-------2---|
|-2-------4--------|---2-----------2-|
|------------------|-0---------------|
|------------------|-----------------|


              Chorus
               $
  A            D       F#m7
               Gtr I
   W           E E E E E E E E
               | | | | | | | |
               / / / / / / / /

  Gtr III
   W           E E E E E E E E
|-^0--------||-----0-----------|
|-^2--------||-------3-2-2-2-2-|
|-^2--------||---2-----2-2-2-2-|
|-^2--------||-0-------4-4-4-4-|
|-^0--------||-----------------|
|-----------||----------
 Comments (click here to add a non-facebook comment)
Great Job.
-jbarrett | 8/7/2004
the beginning started out good but i got very very very confused when i got into the chorus
-dsctt86 | 8/15/2004
does anyone know the lick after the words..."sometimes i thank god....."???
-a14 | 3/30/2005
Home | FAQs | Privacy | Terms | Advertise | Contact
Top 100 Tab Sites