Give Kudos?
Are you sure you want to give kudos to axehappy?

Add To Songbook?
Are you sure you want to add this song to your songbook?


2,680 bands | 34,868 songs
Search: Register FREE! | Login
Browse Songs:
Browse Bands:
Tool Panel
Discuss This Song

1 2 3 4 5





Garth Brooks - Wrapped Up In You (Intro)
Album: Scarecrow (2001)
Submitter: axehappy (131) on 1/12/02
Month Views: 16 | Total Views: 10,388
Moderator: Ray Terry | Report This Song?
Song Tools

Comment

Songbook

Kudos

Show Chords

Print

Garth Brooks - Wrapped Up In You (intro)

By axehappy - axehappy at countrytabs.com

I've written the words out to better help you with the timing of each
chord. Follow the picking pattern through whilst singing.

***********************************************************************


G                       B
How do I love you, well let me see.
  C                               A
I love you like a crooner loves a  melody.
G        A7      C        Abmaj7    G
Baby, completely, wrapped up     in you.
   


   G            B            C             A
E-----3--------------2-----------------------------------
B-----3---------4----4--5-----3--1--0-------2---3p2------
G-----3h4----------4------4------------2------2-2--2-0---
D----5----7-5-------4----4-----2--2--2--2----2--------2--
A---5-------5---0h2-----2-----3--3--3--3----0------------
E--3-----3-----------------------------------------------


   G           A7          C      Abmaj7   G
E-----3-----------0----------------------------3---|
B-----0--------2--2--------3--3----4--4----3---3---|
G--------0-------0---0-------0-------5--------4----|
D----0----0-----2---2-------2-------5--------5-----|
A---2---2------0---0--0----3-------6--------5------|
E--3---3-----------------------------------3-------|
 Comments (click here to add a non-facebook comment)
Home | FAQs | Privacy | Terms | Advertise | Contact
Top 100 Tab Sites