Give Kudos?
Are you sure you want to give kudos to axehappy?

Add To Songbook?
Are you sure you want to add this song to your songbook?


2,751 bands | 35,342 songs
Search: Register FREE! | Login
Browse Songs:
Browse Bands:
Tool Panel
Discuss This Song

1 2 3 4 5



Gary Allan - Highway Junkie (Lead)
Album: Gary Allan Living Hard (2007)
Submitter: axehappy (51) on 3/24/02
Month Views: 18 | Total Views: 5,473
Moderator: Ray Terry | Report This Song?
Song Tools

Comment

Songbook

Kudos

Show Chords

Print

Gary Allan - Highway Junkie (lead)

By axehappy - axehappy at countrytabs.com

Tune low E string to D.

***********************************************************************

p   =   pulloff                              /   =   slide up

x   =   dead note                            !   =   harmonic

h   =   hammer-on                            b   =   bend

br  =   bend & release

***********************************************************************


This is the main kind of lick used throughout the song.


E--------------------------|
B--------------------------|
G--------------------------|
D----------------------0---|
A---3p0-2p0-3p0-2p0-3/5----|
D--0---0---0---0---0-------|


LEAD SOLO


E--------------------------------------------------------------------
B--------------------------------------------------------------------
G--------------------------------------------------5!-------------0--
D----------------------------------------0-0--3/5-x--0-0-0-3-3-3-3---
A---3p0-2p0-3p0-2p0-3p0---3p0-2p0-3p0-3/5-5------------------5-------
D--0---0---0---0---0-----0---0---0---0-------------------------------


E-------------------------------------------------------------------|
B-------------------------------------------------------------------|
G--0----------------------------------------------------------------|
D--0h2-2-2-0-0-0----------------------------------------------------|
A---------------3-3-2p0---------------------------------------------|
D----------------------3b-3b-x-3b-x-3b-x-3b-x-3b-x-3b-x-3b-x-3br-0--|

 Comments (click here to add a non-facebook comment)
Home | FAQs | Privacy | Terms | Advertise | Contact
Top 100 Tab Sites