Give Kudos?
Are you sure you want to give kudos to geetar81?

Add To Songbook?
Are you sure you want to add this song to your songbook?


2,831 bands | 36,009 songs
Search: Register FREE! | Login
Browse Songs:
Browse Bands:
Tool Panel
Discuss This Song

1 2 3 4 5



Gary Allan - Red Lips, Blue Eyes(intro) (Bass)
Album: It Would Be You (1998)
Submitter: geetar81 (3) on 8/1/02
Month Views: 8 | Total Views: 2,983
Moderator: Ray Terry | Report This Song?
Song Tools

Comment

Songbook

Kudos

Show Chords

Print

*Intro Played by Keyboards and then joined by Bass 

G-------5---------------------
D-7-5-----7-5-7-5-------------
A-----7-----------7-5---------
E---------------------8-5-----

G-------5---------------------
D-7-5-----7-5-7-5-------------
A-----7-----------7-5---------
E---------------------8-5-----

G-------5------------------------|
D-7-5-----7-5-7-5-------------5--|
A-----7-----------7-5---5-7------|
E---------------------8----------|
 Comments (click here to add a non-facebook comment)
Home | FAQs | Privacy | Terms | Advertise | Contact
Top 100 Tab Sites