Give Kudos?
Are you sure you want to give kudos to axehappy?

Add To Songbook?
Are you sure you want to add this song to your songbook?


2,865 bands | 36,224 songs
Search: Register FREE! | Login
Browse Songs:
Browse Bands:
Tool Panel
Discuss This Song

1 2 3 4 5



Gary Allan - Right Where I Need To Be (live) (Solo)
Album: Smoke Rings In The Dark (1999)
Submitter: axehappy (56) on 7/13/03
Month Views: 8 | Total Views: 7,260
Moderator: Ray Terry | Report This Song?
Song Tools

Comment

Songbook

Kudos

Show Chords

Print

Gary Allan  -  Right Where I Need To Be LIVE (solo)

By axehappy  -  axehappy at countrytabs.com


******************************************************************************

b   =   bend                                 /   =   slide up

br  =   bend & release                       h   =   hammer-on

p   =   pulloff                              bh  =   bend & hold

r   =   release bend

******************************************************************************



E-----5---------------------------------------13br-10-12--------------------
B----5-5-8/10-----10--13br-13-10-13--9-9-12b------------12b-10-10h12p10--10-
G--7b---------9/11--11-------------10----------------------------------11---
D---------------------------------------------------------------------------
A---------------------------------------------------------------------------
E---------------------------------------------------------------------------


E-------12-12-12-------------------------------------------------------------
B--12bh-12-12-12-12r-10\------------------------------------7p5-7p5-7--7-7p5-
G--------------------------7p5-7p5-7--7-7p5---7p5-7p5-5-7\--7p5-7p5-7--7-7p5-
D--------------------------7p5-7p5-7--7-7p5---7p5-7p5-5-7\-----7---7--7------
A-----------------------------0---0--0-------0---0---0-0---------------------
E----------------------------------------------------------------------------


E------------------------------------------------3--2--0---3--2--5---|
B---7p5-7p5-5-7--7p5-7p5-7--7-7p5---7p5-7p5-5-7--3--3--2---3--3--5---|
G---7p5-7p5-5-7--7p5-7p5-7--7-7p5---7p5-7p5-5-7--0--2--2---0--2--6---|
D--7---7---7--------7---7--7-------7---7---7-0---0--0--2---0--0--7---|
A------------------------------------------------2-----0---2-----7---|
E------------------------------------------------3---------3-----5---|

 Comments (click here to add a non-facebook comment)
Home | FAQs | Privacy | Terms | Advertise | Contact
Top 100 Tab Sites