Give Kudos?
Are you sure you want to give kudos to axehappy?

Add To Songbook?
Are you sure you want to add this song to your songbook?


2,960 bands | 36,675 songs
Search: Register FREE! | Login
Browse Songs:
Browse Bands:
Tool Panel
Discuss This Song

1 2 3 4 5



Gary Allan - Right Where I Need To Be 2 (Intro)
Album: Smoke Rings In The Dark (1999)
Submitter: axehappy (30) on 6/17/02 4 comments
Month Views: 161 | Total Views: 18,604
Sound Byte: Listen
Moderator: Ray Terry | Report This Song?
Song Tools

Comment

Songbook

Kudos

Show Chords

Print

Gary Allan - Right Where I Need To Be (intro)

By axehappy - axehappy at countrytabs.com

This is what I got, Larry.
Your's isn't much different to mine...lol


********************************************************


E-----9-9---9-9----------11-11-----9-9---9-9------------
B--6/7---7\6---6-7p6-7/9-9--9---6/7---7\6---6-------9---
G--------------------------------------------8p6-6/8-8--
D-------------------------------------------------------
A-------------------------------------------------------
E-------------------------------------------------------


E-----9-9---9-9---------11------9-9---9-9--------------|
B--6/7---7\6---6-7p6-7/9--9--6/7---7\6---6-------9-9---|
G-----------------------------------------8p6-6/8--8---|
D------------------------------------------------------|
A------------------------------------------------------|
E------------------------------------------------------|


 Comments (click here to add a non-facebook comment)
I'm having a huge amount of difficulty with the timing of this tab, anybody got any suggestions
-Sean14 | 12/3/2004
Excellent tab! and all i can say for timing is just keep listening and playing.... over and over if you're having troubles
-coolkidcarlson | 9/2/2005
Axe, please add a sound byte.
-BTEX | 2/17/2006
Sound byte added. Its acoustic, so you can hear without the effects.
-axehappy | 2/18/2006
Home | FAQs | Privacy | Terms | Advertise | Contact
Top 100 Tab Sites