Give Kudos?
Are you sure you want to give kudos to Adam223?

Add To Songbook?
Are you sure you want to add this song to your songbook?


2,870 bands | 36,242 songs
Search: Register FREE! | Login
Browse Songs:
Browse Bands:
Tool Panel
Discuss This Song

1 2 3 4 5



Gary Allan - Right Where I Need To Be (Tab)
Album: Smoke Rings In The Dark (1999)
Submitter: Adam223 (1) on 8/3/06
Month Views: 9 | Total Views: 10,596
Moderator: Ray Terry | Report This Song?
Song Tools

Comment

Songbook

Kudos

Show Chords

Print

OK. Theses are just the riffs through out the song...

bbend
rrelease
hhammer on
/slide up
\slide down


This is the one at 32 seconds:

e:-----------------------------------
B:-----------------------------------
G:-----------------------------------
D:-----6/8-----8-----6------8\-------
A:-----4/6-----6-----4------6\-------
E:-----------------------------------

This is the one at 43 seconds:
(Just like the first except the ending is a little diff)

e:------------------------------------
B:------------------------------------
G:------------------------------------
D:-----6/8-----8-----6------8/13\-----
A:-----4/6-----6-----4------6/11\-----
E:------------------------------------


Heres the one at 1:59:

e:----------------------------------------------
B:----------------------------------------------
G:----------------------------------------------
D:-------------4br--------------4br-------------
A:----6--6-----2br------6--6----2br----6/18\----
E:----4--4--------------4--4-----------4/16\----


At 2:06:


e:------------------------------
B:------------------------------
G:------------------------8\----
D:-------------------6----6\----
A:----1h2h3/6-------------------
E:------------------------------
And on the power chord at the end
I believe there is a slight vebrato
before you slide.  

At 2:10

                 Hold Bend
e:--------------------------------
B:-----4b--4--4--4--4--4--4r\-----
G:-----3b--3--3--3--3--3--3r\-----
D:--------------------------------
A:--------------------------------
E:--------------------------------


These are a bit trickier so feel free,
 to show corrections.
The first two arent too bad but i might still 
have them incorrect.  And I hope you all
like it. Thanks
 Comments (click here to add a non-facebook comment)
Home | FAQs | Privacy | Terms | Advertise | Contact
Top 100 Tab Sites