Give Kudos?
Are you sure you want to give kudos to RBrockus?

Add To Songbook?
Are you sure you want to add this song to your songbook?


2,870 bands | 36,242 songs
Search: Register FREE! | Login
Browse Songs:
Browse Bands:
Tool Panel
Discuss This Song

1 2 3 4 5



Gary Allan - Runnaway (Bass)
Album: Smoke Rings In The Dark (1999)
Submitter: RBrockus (2) on 6/27/02
Month Views: 12 | Total Views: 3,868
Moderator: Ray Terry | Report This Song?
Song Tools

Comment

Songbook

Kudos

Show Chords

Print

Runnaway
Tabbed by rbrockus


INTRO:

  AM                                                      
G|--------|--------|--------|--------|
D|--------|--------|--------|--------|
A|0-------|0-------|0-------|0-------|
E|----0-3-|----0-3-|----0-3-|----0-3-|

VERSE:
  Am                G                                 
G|--------|--------|--------|--------|
D|--------|--------|--------|--------|
A|0--0----|0--0----|----5---|----5---|
E|----0---|----0---|3--3----|3--3----|


  F                 E                                   
G|--------|--------|--------|--------|
D|--------|--------|2-2-22--|2200----|
A|----3---|----3---|--------|----3322|
E|1--1----|1--1----|--------|--------|


  Am                G                                 
G|--------|--------|--------|--------|
D|--------|--------|--------|--------|
A|0--0----|0--0----|----5---|----5---|
E|----0---|----0---|3--3----|3--3----|


  F                 E                                   
G|--------|--------|--------|--------|
D|--------|--------|2-2-22--|2200----|
A|----3---|----3---|--------|----4422|
E|1--1----|1--1----|--------|--------|

CHORUS:
  A                 F#m                                 
G|--------|--------|--------|--------|
D|------2-|------2-|--------|--------|
A|0--04---|0--04---|----0-4-|----0-4-|
E|--------|--------|2--2----|2--2----|

  A                 F#m                                 
G|--------|--------|--------|--------|
D|------2-|------2-|--------|--------|
A|0--04---|0--04---|----0-4-|----0-4-|
E|--------|--------|2--2----|2--2----|

  A                 F#m                                 
G|--------|--------|--------|--------|
D|------2-|------2-|--------|--------|
A|0--04---|0--04---|----0-4-|----0-4-|
E|--------|--------|2--2----|2--2----|

  A                 F#m                                 
G|--------|--------|--------|--------|
D|------2-|------2-|--------|--------|
A|0--04---|0--04---|----0-4-|----0-4-|
E|--------|--------|2--2----|2--2----|

  D                 E                                  
G|------2-|------2-|------4-|--------|
D|0--04---|0--04---|2--26---|2-2-----|
A|--------|--------|--------|--------|
E|--------|--------|--------|--------|


  A        D        A        E                          
G|--------|------2-|--------|--------|
D|------2-|0--04---|------2-|2200----|
A|0--04---|--------|0--04---|----3322|
E|--------|--------|--------|--------|

 Comments (click here to add a non-facebook comment)
Home | FAQs | Privacy | Terms | Advertise | Contact
Top 100 Tab Sites