Give Kudos?
Are you sure you want to give kudos to axehappy?

Add To Songbook?
Are you sure you want to add this song to your songbook?


2,945 bands | 36,581 songs
Search: Register FREE! | Login
Browse Songs:
Browse Bands:
Tool Panel
Discuss This Song

1 2 3 4 5



Gary Allan - Send Back My Heart (Intro)
Album: Used Heart For Sale (1996)
Submitter: axehappy (62) on 4/24/03 1 comment
Month Views: 94 | Total Views: 3,660
Moderator: Ray Terry | Report This Song?
Song Tools

Comment

Songbook

Kudos

Show Chords

Print

Gary Allan  -  Send Back My Heart  (intro)

By axehappy  -  axehappy at countrytabs.com


*******************************************************

   N/C              E                      A

E--8/9--7-5-7-5-4-2-2-4-0--5/7-5-4-2-0---2-0--
B--9/10-9-7-9-7-5-3-3-5-0--7/9-7-5-3-0-3-3-2--
G--------------------------------------4------
D---------------------------------------------
A---------------------------------------------
E---------------------------------------------

                        E                  A

E--8/9--7-5-7-5-4-2-2-4-0--5/7-5-4-2-4-7-4-5---|
B--9/10-9-7-9-7-5-3-3-5-0--7/9-7-5-3-5-5-5-5---|
G----------------------------------------------|
D----------------------------------------------|
A----------------------------------------------|
E----------------------------------------------|
 Comments (click here to add a non-facebook comment)
Kickass! I love this song.
-geetar81 | 4/30/2003
Home | FAQs | Privacy | Terms | Advertise | Contact
Top 100 Tab Sites