Give Kudos?
Are you sure you want to give kudos to madtabber?

Add To Songbook?
Are you sure you want to add this song to your songbook?


2,716 bands | 35,125 songs
Search: Register FREE! | Login
Browse Songs:
Browse Bands:
Tool Panel
Discuss This Song

1 2 3 4 5



George Jones - She Thinks I Still Care (Tab)
Album: 50 Years of Hits (2004)
Submitter: madtabber (1) on 12/12/05
Month Views: 19 | Total Views: 6,991
Moderator: Ray Terry | Report This Song?
Song Tools

Comment

Songbook

Kudos

Show Chords

Print

George Jones
She Thinks I Still Care

This tabs a personal favorite of mine.
Because you can sing along with it,
Or you can let the guitar do the singing, 
if you got a buddy to back you up.
If not than play the guitar 2 tab.
Its just the beginning 18 measures
the tab is actually pretty long I didnt want
to submit the whole thing but if you want it
feel free as always to Email me ill be glad to send
it.

madtabber at gmail.com


Guitar 1
E||------------------|--5--------1--5-----5----|--1-------------------|
B||------------------|--6-----1----------------|--4---------------1-4-|
G||------------------|--5--2-----------2--5----|--5-------------2-----|
D||------------------|-------------------------|--7-------------------|
A||------------------|-------------------------|----------------------|
E||------------------|--1----------------------|--1-------------------|


                                                                     
--1-----------------|-------------------1----|--5-------------1--5--|
--3-----------------|-------------3----------|--6-------------------|
--3-----------------|--3--------3------------|--5----------2--------|
--3--------------3--|---------3------3-------|----------------------|
--1-----------------|------------------------|----------------------|
--------------------|------------------------|--1-------------------|


                                                                         
--0--------8----0----|-----------1--1--------|--0-----------0-----0--3--|
--1------------------|--3-----------2--------|--8-----------------------|
--3------------------|--3-----3-----3--------|--5--0-----5-----0--3-----|
--5------------------|-----3--------3--------|--8-----8-----------------|
--3------------------|--1-----------1--------|--------------------------|
---------------------|-----------------------|--8-----------------------|


                                                                    
--5--------------1-5---|--1---------1--------|--20-----------------|
--6------------1-------|---------------------|---------------------|
--5----------2---------|--3---------3--------|-------------------2-|
-----------------------|---------3-----------|---------------------|
-----------------------|--1------------------|---------------------|
--1--------------------|---------------------|--1------------------|


                                                                        
-------------1--5-----|--5---------5--------|--0-----------0-----0--3--|
-----------1----------|---------------------|--8-----------------------|
-------------------5--|--5------2--5--------|--5--0-----5-----0--3-----|
----------------------|---------------------|--8-----8-----------------|
----------------------|---------------------|--------------------------|
----------------------|--1------------------|--8-----------------------|


                                                                       
--5----------1--------|--5--------1--5-----5----|--5---------5--------|
--6-------1--3--------|--6-----1----------------|---------------------|
--5----2-----3--------|--5--2-----------2--5----|--5------2--5--------|
-------------3--------|-------------------------|---------------------|
----------------------|-------------------------|---------------------|
--1-------------------|--1----------------------|--1------------------|


                                                                    

Guitar 2
E||------------------|--5-----5------------5-----|--------------------------|
B||------------------|--------6----------6----6--|--4-----------------4-----|
G||------------------|-----5-----5-----5---------|--2-----2-----------2-----|
D||------------------|--3-----------3------------|-----3-----3-----3-----3--|
A||------------------|---------------------------|--------------------------|
E||------------------|---------------------------|--1-----------1-----------|


                                                       
--------------------------|---------------------------|
--------3-----------------|---------------------3-----|
--3-----3-----------3-----|---------3-----------3-----|
--3--0-----3-----0--3--0--|-----0-3----3-----3-----3--|
--1-----------1-----------|--1------------1-----------|
--------------------------|---------------------------|


                                                         
--------5-----------5-----|--------0---------------0----|
-----1--6-----------6-----|----------------------1------|
-----------5-----5-----5--|-----0--3--0-----0--3-----3--|
--3-----------3-----------|-----------------------------|
--------------------------|--3-----------3--------------|
--------------------------|-----------------------------|


                                                         
----------------------------|--0-----0------------0-----|
--------------3----------2--|---------------------------|
------------3---------3-----|--3--0--3--0-----0-3----0--|
-----3--0-3--------3--------|---------------------------|
--1-------------1-----------|--3-----------3------------|
----------------------------|---------------------------|


                                                       
--5-----5------------5-----|--------------------------|
--------6----------6----6--|--------3-----------3-----|
-----5-----5-----5---------|--------3-----------3-----|
--3-----------3------------|-----3-----3-----3-----3--|
---------------------------|--------------1-----------|
---------------------------|--6-----------------------|


                                                      
--5-----5-----------5-----|--------5-----------5-----|
--6-----6-----------6-----|--------6-----------6-----|
-----5-----5-----5-----5--|-----5-----5-----5-----5--|
--3-----------3-----------|--3-----------3-----------|
--------------------------|--------------------------|
--------------------------|--------------------------|


                                                      
--------5-----------5-----|--------0-----------0-----|
--------6-----------6-----|--------------------------|
-----5-----5-----5-----5--|-----0--3--0-----0--3--0--|
--3-----------3-----------|--------------------------|
--------------------------|--3-----------3-----------|
--------------------------|--------------------------|


                                                         
--------5-------------------|--5-----5------------5-----|
-----1--6-----------------3-|--------6----------6----6--|
-----------5------------3---|-----5-----5-----5---------|
--3--------------3--0-3-----|--3-----------3------------|
----------------------------|---------------------------|
--------------6-------------|---------------------------|
 Comments (click here to add a non-facebook comment)
Home | FAQs | Privacy | Terms | Advertise | Contact
Top 100 Tab Sites