Give Kudos?
Are you sure you want to give kudos to WildCard76?

Add To Songbook?
Are you sure you want to add this song to your songbook?


2,626 bands | 34,395 songs
Search: Register FREE! | Login
Browse Songs:
Browse Bands:
Tool Panel
Discuss This Song

1 2 3 4 5





George Jones - White Lightnin' (Lead)
Album: 50 Years of Hits (2004)
Submitter: WildCard76 (180) on 10/23/02
Month Views: 19 | Total Views: 5,011
Moderator: Ray Terry | Report This Song?
Song Tools

Comment

Songbook

Kudos

Show Chords

Print

E-----5---5---5---5---5-----9--10p9---------------
B---7---7---7---7---7----10---------10------------
G---------------------------------------9---------
D-------------------------------------------------
A-------------------------------------------------
E-------------------------------------------------

E--17p16--------15p14-----------------------------
B--------17-----------15--------------------------
G-----------16-----------14-----------------------
D-------------------------------------------------
A--------------------------------b2-b2--b2-----0--
E-------------------------------------------------

 Comments (click here to add a non-facebook comment)
Home | FAQs | Privacy | Terms | Advertise | Contact
Top 100 Tab Sites