Give Kudos?
Are you sure you want to give kudos to telecowboy52?

Add To Songbook?
Are you sure you want to add this song to your songbook?


2,761 bands | 35,450 songs
Search: Register FREE! | Login
Browse Songs:
Browse Bands:
Tool Panel
Discuss This Song

1 2 3 4 5



George Strait - Amarillo By Morning (Lead)
Album: George Strait - Greatest Hits (1990)
Submitter: telecowboy52 (0) on 11/4/04 3 comments
Month Views: 8 | Total Views: 27,681
Moderator: petstupid | Report This Song?
Song Tools

Comment

Songbook

Kudos

Show Chords

Print

Amarillo By Morning
George Strait


Lead Guitar over 3rd Verse, 
After Key modulation from D to E


      b= bend  \= slide down     

      --3--= play as triplet (a very quick triplet here)



...by mornin'				up from
E---------------------------------------------------------
B------------------7------7-------------------------------
G-------------6-8-----6-8---6b[8]--r6---------------------
D---------------------------------------------------------
A---------------------------------------------------------
E---------------------------------------------------------

   San Antone    --3--         --3--     	 
E--------------12-14-12-----------------------------------
B-----------------------14----12-14-12--------------------
G--------------------------------------13--\--9--\--4-----
D---------------------------------------------------------
A---------------------------------------------------------
E---------------------------------------------------------

..that I got              is    just 
E---------------------------------------------------------
B----------------7------7---------------------------------
G-----------6-8-----6-8---6b[8]--r6-----------------------
D---------------------------------------------------------
A---------------------------------------------------------
E---------------------------------------------------------

  what I got on
E-------------------------------------9--7---12--11--14---
B-------------------------------9--7----------------------
G-------------------------9--8----------------------------
D------------------11--9----------------------------------
A---------------9-----------------------------------------
E------------7--------------------------------------------




Tele Cowboy

 Comments (click here to add a non-facebook comment)
Perfect! Thanks

-gjkilmer | 3/13/2005
great tab
-cwby4571 | 4/14/2005
can you tab the intro (fiddle part) at the begining too?
-jet7719 | 1/12/2009
Home | FAQs | Privacy | Terms | Advertise | Contact
Top 100 Tab Sites