Give Kudos?
Are you sure you want to give kudos to PyoorCntry?

Add To Songbook?
Are you sure you want to add this song to your songbook?


2,761 bands | 35,450 songs
Search: Register FREE! | Login
Browse Songs:
Browse Bands:
Tool Panel
Discuss This Song

1 2 3 4 5



George Strait - As Far As It Goes (Tab)
Album: Honkytonkville (2003)
Submitter: PyoorCntry (0) on 6/11/03 2 comments
Month Views: 13 | Total Views: 12,930
Moderator: petstupid | Report This Song?
Song Tools

Comment

Songbook

Kudos

Show Chords

Print

George Strait
"As Far As It Goes"

(Capo 1)  ** NOTE - All chords and tabs relative to capo **


(Intro)   (fill 1), D, Dsus2, D, Dsus2, D, (fill 2), Dsus2, G, Asus2

(Verse 1)
D             Dsus2         G
  Lately I've found myself fallin'
 Asus2              D
Deeper in love with you
            Dsus2                 G
I'm not the kind of guy who gets swept away
   Asus2                 Bm
So here's what I'm gonna do
          Asus2                  G
I'm gonna give you this heart of mine
    D/F#                    Em
But that's where I draw the line

(Chorus 1)
D           Dsus2          G          Asus2  (fill 6)
  I'm only gonna give you everything
D            Dsus2           G         Asus2  (fill 4)
  Take it a mile beyond the end of the road
D            D/F#     G                    D/F#, Em
  I'm gonna love you one day past forever
              Asus2     D   (fill 3), Dsus2, G, Asus2
But that's as far as it goes

(Verse 2)
D            Dsus2                G
  I know it may   not sound like much
    Asus2             D  (fill 6)
But baby, make no mistake
            Dsus2               G
I'm gonna treat you with more tenderness
     Asus2              Bm
Than any one woman can take
          Asus2                     G
I'm gonna make all your dreams come true
    D/F#                 Em
But after that baby, I'm through

(Chorus 2)
D           Dsus2          G          Asus2, (fill 4)
  I'm only gonna give you everything
D            Dsus2           G         Asus2, (fill 4)
  Take it a mile beyond the end of the road
D            D/F#     G                    (fill 5), D/F#, Em
  I'm gonna love you one day past forever
              Asus2   (fill 6) D    (fill 7)
But that's as far as it        goes

(Bridge)
Bm                  Asus2           G     (fill 8), D/F#, Em
   You've got your limits, I've got mine
               D/F#              C          Asus2
I'm only gonna go  the distance, time after time

(Chorus 3)
D           Dsus2          G        (fill 9)  Asus2
  I'm only gonna give you everything
D            Dsus2           G         Asus2  (fill 4)
  Take it a mile beyond the end of the road
D            D/F#     G                   (fill 5), D/F#, Em
  I'm gonna love you one day past forever
              Asus2     D   (fill 2), Dsus2
But that's as far as it goes

(Outro)
G           Asus2     D   (fill 2), Dsus2, G, Asus2, (fill 10), Dsus2
  That's as far as it goes

--------------------------------------------------------------------------

(Fill 1)
E -----------------------------
B -----------------------------
G -----7--9--7--6--7-6--7-6-7--
D --7--------------------------
A -----------------------------
E -----------------------------

(Fill 2)
E ------------------------------------
B ------------------------------------
G --11--12--11--9---------------------
D ------------------12---11---9----7--
A ------------------------------------
E ------------------------------------

(Fill 3)
E ---------------------------------------------------------
B ---------------------------------------------------------
G --11--12--11--9------------------------------------------
D ------------------12---11---9----7-----7--9--9/11--9/12--
A ---------------------------------------------------------
E ---------------------------------------------------------

(Fill 4)                  (Fill 5)             (Fill 6)
E -------------------     E---------------     E-----------
B --3--2-------------     B---------------     B-----------
G --------2----------     G---------------     G-----------
D ----------------3--     D--5--4--5--2~--     D--------3--
A -----------0h2-----     A---------------     A--0h2------
E -------------------     E---------------     E-----------

(Fill 7)
E ------------------------------------
B ------------------------------------
G --7~--6~---7--6--4--2--0------------
D --------------------------2--0------
A --------------------------------2~--
E ------------------------------------

(Fill 8)
E -----------------------------------------------------------
B -----------------10~---------------------------------------
G --7--9--7--9/11-------11--9--7-----7h9~---11~---12~---14~--
D --------------------------------9--------------------------
A -----------------------------------------------------------
E -----------------------------------------------------------

(Fill 9)                                    (Fill 10)
E -------------------------------------     E----0-----------
B -------------------------------------     B-------3--------
G --------7--9/11~--9h11h9~---9h11h7~--     G--2-------2--0--
D --7--9-------------------------------     D----------------
A -------------------------------------     A----------------
E -------------------------------------     E----------------


(Chords)

    Asus2   Bm    C    D    D/F#   Dsus2   G    Em  
E --0-------2-----0----2----0------0-------3----0--
B --0-------3-----1----3----3------3-------3----0--
G --2-------4-----0----2----2------2-------0----0--
D --2-------4-----2----0----0------0-------0----2--
A --0-------2-----3---------0--------------2----2--
E --------------------------2--------------3----0--


Tabbed by:  Dustin Landry
            PyoorCntry at Aol.Com
 Comments (click here to add a non-facebook comment)
Awesome job man! This sounds exactly like the way it does in the recording!
-leo9480 | 6/21/2003
that is really really good! i really like this tune
-clay98 | 1/27/2006
Home | FAQs | Privacy | Terms | Advertise | Contact
Top 100 Tab Sites