Give Kudos?
Are you sure you want to give kudos to showard?

Add To Songbook?
Are you sure you want to add this song to your songbook?


2,761 bands | 35,450 songs
Search: Register FREE! | Login
Browse Songs:
Browse Bands:
Tool Panel
Discuss This Song

1 2 3 4 5



George Strait - Blue Clear Sky (Lead)
Album: Blue Clear Sky (1996)
Submitter: showard (0) on 7/11/02
Month Views: 9 | Total Views: 8,466
Moderator: petstupid | Report This Song?
Song Tools

Comment

Songbook

Kudos

Show Chords

Print

Tabbed this w/o guitar handy, so might be a few mistakes.
I will do corrections if need be.


Intro (Steel Guitar arranged for electric guitar)

e -----------------
b ---------7--7/9--
g --9--8h9--9------  repeats three times
d ---9-------------
a -----------------
e -----------------

Intro (guitar part)

e ---------------------------
b --12---12-12---12--12-10-9-
g --9----9--9----9---9--9--9- repeats three times
d ---------------------------
a ---------------------------
e ---------------------------
then
e --------7----------------------------------------
b ----7/9--------------------9/7-------------------
g --9-------8h9p8-9------9-------9-----------------
d -------------------9-9---9-------9-7/6-2---------
a -------------------------------------------------
e -------------------------------------------------

Verse (riff throughout), listen to song for timing

e -------------------------------------------------------
b -------------------------------------------------------
g -------------------------------------------------------
d ----2---2--------2---2------------------2-----4--------
a -------------0-0---0---0----repeat----------2----2-----
e --0---0---0-------------------------0-0---0--------0---
    E          A            E  A E A  E       B

Riff before Chorus (Steel guitar)

e ----12---9---7-------------
b --9----9---9---9-7---------
g -------------------9-------
d ---------------------------
a ---------------------------
e ---------------------------

SOLO (Steel Guitar arranged for electric guitar)

This doesn't sound as good as the real thing, but it is pretty
close for doing it on guitar I think.

May be a mistake in 3rd line,
the 14 on the g string may actually be 13.

e -------------------------------9/11/12--------16h17p16-
b --9--7-9-7h9p7---10--7-9/10/12-------------17----------
g ---------------9---------------------------------------
d -------------------------------------------------------
a -------------------------------------------------------
e -------------------------------------------------------

e -16h17p16-----------------------16h17p16-16h17p16------
b -----------17----------17----17-------------------17---
g --------------18/16/18----18---------------------------
d -------------------------------------------------------
a -------------------------------------------------------
e -------------------------------------------------------

e -------------------------------------------------------
b ----17-------------------------------------------------
g -/18---18/16-14------16-14--14/11----------------------
d ---------------------------------14--------------------
a -------------------------------------------------------
e -------------------------------------------------------

 Comments (click here to add a non-facebook comment)
Home | FAQs | Privacy | Terms | Advertise | Contact
Top 100 Tab Sites