Give Kudos?
Are you sure you want to give kudos to dude0212?

Add To Songbook?
Are you sure you want to add this song to your songbook?


2,751 bands | 35,343 songs
Search: Register FREE! | Login
Browse Songs:
Browse Bands:
Tool Panel
Discuss This Song

1 2 3 4 5



George Strait - Down Luoisiana Way(intro And Solo) (Intro)
Album: Lead On (1994)
Submitter: dude0212 (0) on 9/29/05 1 comment
Month Views: 9 | Total Views: 2,591
Moderator: petstupid | Report This Song?
Song Tools

Comment

Songbook

Kudos

Show Chords

Print

It's capo 3. 
Intro:

E--------------------------------------------------
B-----------------------------------------------
G---------------------0-----------------------------
D----2/4-2--------2-4---4-2------------------------
A----------5----5-----------5------------------------
E----------------------------------------------------


Solo:
E-----------------------------|----------------------------
B-----------------------------|----------------------------
G---------------------0-------|--2/4-2--------2-4-5-4-2----
D----2/4-2--------2-4---4-2---|--------5----5-----------5--
A----------5----5-----------5-|----------------------------
E-----------------------------|----------------------------





 Comments (click here to add a non-facebook comment)
this is my first tab so please comment and tell me what you think.
-dude0212 | 9/29/2005
Home | FAQs | Privacy | Terms | Advertise | Contact
Top 100 Tab Sites