Give Kudos?
Are you sure you want to give kudos to Rondo Fondu?

Add To Songbook?
Are you sure you want to add this song to your songbook?


2,725 bands | 35,155 songs
Search: Register FREE! | Login
Browse Songs:
Browse Bands:
Tool Panel
Discuss This Song

1 2 3 4 5



George Strait - Love Without End Amen (Tab)
Album: 50 Number Ones (2004)
Submitter: Rondo Fondu (12) on 3/3/04 5 comments
Month Views: 12 | Total Views: 12,950
Moderator: petstupid | Report This Song?
Song Tools

Comment

Songbook

Kudos

Show Chords

Print

Love Without End Amen

By Aaron G. Barker


D    xx0232
G    320033
A    x02220
A7   x02020
D/F# 2xx232
E7   x21202
E    022100
E/G# 422100
E    xx4442

ALL GUITARS STANDARD TUNING

Gtr I   'Rhythm (strummed)'
Gtr II  'Rhythm (picked)' Capo 2nd Fret
Gtr III 'Steel guitar'
Gtr IV  'Untitled'

 Intro
  Moderately Q=89
  N.C.(D)
 4/4
  Gtr II
  E E   +S  E.   +E  E   +S  S E   E E   +S  E.   +E  E   +S  S E
|--------------------------------|--------------------------------||
|---1---(1)------------------1---|---1---(1)------------------1---||
|-----------0----(0)-0---(0)-----|-----------0----(0)-0---(0)-----||
|---0h2-(2)----2-(2)-0h2-(2)---0-|---0h2-(2)----2-(2)-0h2-(2)---0-||
|-3---------------3--------------|-3---------------3--------------||
|--------------------------------|--------------------------------||
  E S S +E     E  E  S S +E    E   E S S +E     E  E  S S +E    E


 Verse
  D                                 G               D
  E S  S  +S  S S S E S S S S S S    E  E S S S  S  E S S S S E
|---------------------------------|-----------------------------|
|---1-(1)-(1)---1---------1-------|---------1-------------1-----|
|-------------0---0-----0---0---0-|-----2-2---2-----0---0---0---|
|---0h=2--(2)---------2-------2---|-(3)-3-------(2)-2-2-------2-|
|-3-----------------3-------------|--3-----------3--------------|
|---------------------------------|-----------------------------|


                      2/4
   E  E. S E E E E E   E S  E  S S S
|--------------------|---------------|
|-----1--1-------1---|-----------1---|
|-----0----0---0---0-|---0-(0)-0---0-|
|-(2)-2------2-------|---0h=2--------|
|--3-----------------|-3-------------|
|--------------------|---------------|


  A7                                G             A7
 4/4
   E   E  S S S S S S S S S S S S   E  E  S S S S S S S S S S S S
|---------------------------------|-------1-----------------------|
|---------------------------------|---(1)---1---1-------------0---|
|------0--------0-------0-------0-|----2------2-------------0---0-|
|------0------0-------0-------0---|-3--3--------------0---0-------|
|-(2)-(2)-0h2-----0h2-----0h2-----|----3----------0h2---2---------|
|--3------3-------3-------3-------|---------------3---------------|


  D   D/F#  G
 2/4       4/4
  E E E E   E S E S S S S S S S E E
|---------|---------------------1---|
|---------|-1-1---1-----------1---1-|
|---0---0-|-2-0h2---2-----0h2-------|
|-----2---|-3-----------3-----------|
|-3-------|-------------------------|
|---------|-------------------------|


  D                           A
                             2/4
  E S E S S S E S S S S S S   E E E E
|---------------------------|---------|
|---------1---------1-------|---------|
|-------0---0-----0---0---0-|---0---0-|
|---0h2---------2-------2---|-----0---|
|-3-----------3-------------|-2-------|
|---------------------------|---------|


                            Chorus 1
  D
 4/4
                             Gtr I
  W                            E  S S  E  S S E S S  E  S S
                               |  | |  |  | | | | |  |  | |
                               /  / /  /  / / / / /  /  / /

                             Gtr II
  E E S S S S E  E   Q         E  E   +E  S S E E   +E  S S
|--------------------------|--------------------------------|
|---------1----------------|------1---(1)-1-----1---(1)-1---|
|---0---0---0----0---------|------0---(0)---0---0---(0)---0-|
|-----2--------------------|------2---(2)-------2---(2)-----|
|-3-----------3------------|---3--------------3-------------|
|--------------------------|--------------------------------|
|
| Gtr III
|                       ~~~~~~~~~~
| H           E  S S S  E.    +H              H
|--------------------------|--------------------------------|
|----------------------10\-|-(10)---------------------------|
|--------------------7--7\-|--(7)---------------------------|
|---------------/7-7-------|--------------------------------|
|--------------------------|--------------------------------|
|--------------------------|--------------------------------|
|
| Gtr IV
| W                            H              H
|--------------------------|--------------------------------|
|--------------------------|-^-7----------------------------|
|--------------------------|-^-7----------------------------|
|--------------------------|-^-7----------------------------|
|--------------------------|-^-5----------------------------|
|--------------------------|--------------------------------|


  G              D
   E S S  E  S S E  S S  E  S  S       E S S  E  S S E S S E   S S
   | | |  |  | | |  | |  |  |  |       | | |  |  | | | | | |   | |
   / / /  /  / / /  / /  /  /  /       / / /  /  / / / / / /   / /

   E E   +E  S S E  E   +E  S  S       E E   +E  S S E S S S S S S
|-----------------------------------|------------------------------|
|----1---(1)-1------1---(1)-1-------|----1---(1)-1-----------1-----|
|----2---(2)---2----0---(0)----0----|----0---(0)---0-----0-----0---|
|----3---(3)--------2---(2)---------|----2---(2)-------2---2-----2-|
|--3-------------3------------------|--3-------------3-------------|
|-----------------------------------|------------------------------|
|
|                   ~~~~~~~~~~
|  H             E  S S  E  S +S       W
|------------------/5----5----------|------------------------------|
|---------------------7-----7-(7)b9-|------------------------------|
|-----------------------------------|------------------------------|
|-----------------------------------|------------------------------|
|-----------------------------------|------------------------------|
|-----------------------------------|------------------------------|
|
|  H             H                     H             H
|-----------------------------------|------------------------------|
|-^3-------------3------------------|-^3---------------------------|
|-^4-------------2------------------|-^2---------------------------|
|-^5-------------4------------------|-^4---------------------------|
|-^5-------------5------------------|-^5---------------------------|
|-----------------------------------|------------------------------|


                A                       A7
 2/4           4/4
  E S S E S S   E S  S  E S  S  E S  S   E S  S
  | | | | | |   | |  |  | |  |  | |  |   | |  |
  / / / / / /   / /  /  / /  /  / /  /   / /  /

  E E   E E     E S +S  E S +S  E S +S   E S +S
|-------------|----------------------------------|
|-------------|---3-(3)---3-(3)---3-(3)----3-(3)-|
|-------0-----|---0-(0)---0-(0)---0-(0)----0-(0)-|
|---2-----2---|---0-(0)---0-(0)---0-(0)----0-(0)-|
|-3-----------|---------2----------------2-------|
|-------------|-3---------------3----------------|
|
| W             Q       Q       Q        Q
|-------------|-5S======7S======9S======12-------|
|-------------|-2S======3S======5S=======8-------|
|-------------|----------------------------------|
|-------------|----------------------------------|
|-------------|----------------------------------|
|-------------|----------------------------------|
|
| H             Q       Q       Q        Q
|-2-----------|----------------------------------|
|-3-----------|-2-------3-------5--------8-------|
|-2-----------|-2-------4-------6--------9-------|
|-------------|----------------------------------|
|-------------|----------------------------------|
|-------------|----------------------------------|


  G                  A7                    D       D/F#
                                          2/4
   E   S S  E    S S  E    S  S  E   S S   E   S S E S S
   |   | |  |    | |  |    |  |  |   | |   |   | | | | |
   /   / /  /    / /  /    /  /  /   / /   /   / / / / /

   S S S S +S  S S S  S  S S  S  S S S S   S S S S E E
|-----------------------------
 Comments (click here to add a non-facebook comment)
hahaha....good tab, but this is where sheet music comes in handy
-zizzy34 | 4/6/2004
Feel free to post a tab or two of yours!
-Rondo Fondu | 4/8/2004
Thanks again, Rondo. You make good off of my efforts again.
-Mister B. | 6/11/2004
Mister B that would kinda be shiesty if he is taking.."your" tabs. But there IS only so many ways you can play a song. Maybe he did pick it out his own.
-southrnthunder1 | 8/22/2005
No, he did steal it. I've seen Mister B's tabs on Power Tab Archives. Every George Strait tab Rondo posted is directly a result of Mister B's efforts. Try putting up one or two of YOUR own, Rondo.
-brian.james6 | 11/3/2005
Home | FAQs | Privacy | Terms | Advertise | Contact
Top 100 Tab Sites