Give Kudos?
Are you sure you want to give kudos to txjonc?

Add To Songbook?
Are you sure you want to add this song to your songbook?


2,985 bands | 36,834 songs
Search: Register FREE! | Login
Browse Songs:
Browse Bands:
Tool Panel
Discuss This Song

1 2 3 4 5



George Strait - Milk Cow Blues (Lead)
Album: Strait Out of the Box (Disk 3) (995)
Submitter: txjonc (3) on 8/3/03
Month Views: 240 | Total Views: 6,085
Moderator: petstupid | Report This Song?
Song Tools

Comment

Songbook

Kudos

Show Chords

Print

Milk Cow Blues twin lead:

e-----------------------------------------------------------
b----------------------------------2------------------------
g----2-2-2-2----------------------5---5-4-2---2-------2-4-5-
d-2-4-------5p4-2---2-2-2-4-----------------4---4-2--4------
a----------------3-4-------3p2-0--------------------5-------
e-----------------------------------------------------------

e------------------------------------------------------------
b-------------------------------5-4-3-1/2------------------5-
g-5-4-2h4p2---2------5p2-5-4-1-----------2--2-2--2-2--2-4/6--
d-----------4---4-------------2------------4-----------------
a-----------------4------------------------------------------
e------------------------------------------------------------

This is the twin lead part,"Benny and Rick". 
 Comments (click here to add a non-facebook comment)
Home | FAQs | Privacy | Terms | Advertise | Contact
Top 100 Tab Sites