Give Kudos?
Are you sure you want to give kudos to mammy?

Add To Songbook?
Are you sure you want to add this song to your songbook?


2,831 bands | 36,024 songs
Search: Register FREE! | Login
Browse Songs:
Browse Bands:
Tool Panel
Discuss This Song

1 2 3 4 5



Great Divide - If Not For You (Solo)
Submitter: mammy (16) on 3/28/03
Month Views: 18 | Total Views: 3,040
Moderator: Beau2137 | Report This Song?
Song Tools

Comment

Songbook

Kudos

Show Chords

Print

If Not for You - lead
by The Great Divide

/  =  slide up
\  =  slide down
b  =  bend

~^~^~^~^~^~^~^~^~^~^~^~^~^~^~^~^~^~^~^~^~^~^~^~^~^~^~^~^~^~^~^~^~^~^
Lead Solo                                                                              

e-------------------------------------------------------------e
B-------------8888--------------------------------------------B
G--------7-9--9999--9-7-5-7---------------7-------------------G
D---9-10--------------------5-5-----5-7/9---------------------D
A-------------------------------5-7---------------------------A
E-------------------------------------------------------------E
                                                                              

e---------------------------7---------------------------------e
B-------------------------7-----------------------------------B
G--------------7---5---7--------------------------------------G
D---9\7--5---7---7--------------------------------------------D
A----------5--------------------------------------------------A
E-------------------------------------------------------------E

2nd Lead Solo/Outro

e--------------------------------------------------------------e
B--------------------------------5-----------------------------B
G---7---------7---9-9-7-5-7------------------------------------G
D-----7---2-----9-----------5-5--------------------------------D
A-------7------------------------------------------------------A
E--------------------------------------------------------------E
                                                                              

e--------------------------------------------------------------e
B--------------------------------------------------------------B
G-------------7-----------7------------------------------------G
D-------5-7/9---9\7-5---7---7----------5-7-5-------------------D
A---5-7---------------5-------7-5--5-7-------------------------A
E--------------------------------------------------------------E
                                                                              
~^~^~^~^~^~^~^~^~^~^~^~^~^~^~^~^~^~^~^~^~^~^~^~^~^~^~^~^~^~^~^~^~^~^
enjoy :)
mammycc_05 at yahoo.com
 Comments (click here to add a non-facebook comment)
Home | FAQs | Privacy | Terms | Advertise | Contact
Top 100 Tab Sites