Give Kudos?
Are you sure you want to give kudos to grountrymusic?

Add To Songbook?
Are you sure you want to add this song to your songbook?


2,830 bands | 35,972 songs
Search: Register FREE! | Login
Browse Songs:
Browse Bands:
Tool Panel
Discuss This Song

1 2 3 4 5



Jamey Johnson - Women (Tab)
Album: That Lonesome Song (2008)
Submitter: grountrymusic (2) on 2/17/09
Month Views: 12 | Total Views: 4,248
Moderator: blugraspickr | Report This Song?
Song Tools

Comment

Songbook

Kudos

Show Chords

Print

Unfinished

Women their all crazy some hide it well 

  C                 G           F
--------------------------------------
--------------------------------------
-----------------0-0---------222-0----
-0h2-0-------0h2-----0----------------
-------3---3-----------2--------------
---------3---------------3------------

and some just let it show
   G                       C
--------------------------------------     
--------------------------------------
--strum around to find notes----------
--------------------------0h2---------
-------------------------------3------
--------------------------------------

F                              C                          
I've made a sad one laugh and Ive mad a bad one cry          
G                              C                          
ive made one scream my name to the good lord bye and bye
F                              C               Am          
ive made em go insane and ive made em go awayyy            
F                    G          C
I just cant seem to make one stay


This can be mixed in during the chords but i cant figure out the tune...
Jamey Johnson plays it in a GACTv.com video. Any help would be great.
 Comments (click here to add a non-facebook comment)
Home | FAQs | Privacy | Terms | Advertise | Contact
Top 100 Tab Sites