Give Kudos?
Are you sure you want to give kudos to guitarnut1?

Add To Songbook?
Are you sure you want to add this song to your songbook?


2,870 bands | 36,242 songs
Search: Register FREE! | Login
Browse Songs:
Browse Bands:
Tool Panel
Discuss This Song

1 2 3 4 5



Jason Aldean - Days Like These (Intro/Lead) (Lead)
Album: My Kinda Party (2010)
Submitter: guitarnut1 (2) on 9/14/11
Month Views: 23 | Total Views: 6,172
Moderator: countrygirl2727 | Report This Song?
Song Tools

Comment

Songbook

Kudos

Show Chords

Print

This intro is played by finger picking the B and G strings. Sort of plucking them
together and then alternating where shown. Keep your index finger barred at the
2nd fret and use the middle finger and pinky to hit frets 3 and 5 on the B string.
It's a bit tricky to get it going but after just a little practice, it comes together.

Pan the track to one side and the guitar is there without the B3 organ...it's
easier to hear and prctice this way.

The lead is all slide guitar. I wasn't sure how to tab the subtle slides he plays
as he sets up the main notes of the solo. The first slide in each grouping is like
a grace note. Just listen as you read the tab and it should make sense.


Intro
A               x3  A        
------------------- -----------------
-3-3---5-2-2-3p2--- -3-3---5-2-2-3-3-
-2-2-2---2-2-2--2-- -2-2-2---2-2-2-2-
------------------- -----------------
------------------- -----------------
------------------- -----------------

Before second verse
A               x2         
------------------- 
-3-3---5-2-2-3p2--- 
-2-2-2---2-2-2--2-- 
-------------------
-------------------
-------------------

Before bridge - instead of B3 organ.
A               x2         
------------------- 
-3-3---5-2-2-3p2--- 
-2-2-2---2-2-2--2-- 
-------------------
-------------------
-------------------

Lead
A         G      D               A
-------------------------------------------
-------------------------------------------
-----------------------------2/4/2--/14----
-2/7--5/7/5--3/5/4--4/2p0------------------
-------------------------------------------
-------------------------------------------

Before outro
A               x3  A    Lead Vamp    
------------------- ----
-3-3---5-2-2-3p2--- -3--
-2-2-2---2-2-2--2-- -2--
------------------- ----
------------------- ----
------------------- ----


 Comments (click here to add a non-facebook comment)
Home | FAQs | Privacy | Terms | Advertise | Contact
Top 100 Tab Sites