Give Kudos?
Are you sure you want to give kudos to mammy?

Add To Songbook?
Are you sure you want to add this song to your songbook?


2,747 bands | 35,282 songs
Search: Register FREE! | Login
Browse Songs:
Browse Bands:
Tool Panel
Discuss This Song

1 2 3 4 5



Jason Boland - Proud Souls (complete) (Solo)
Album: Pearl Snaps (2001)
Submitter: mammy (6) on 3/7/04 1 comment
Month Views: 9 | Total Views: 9,760
Moderator: petstupid | Report This Song?
Song Tools

Comment

Songbook

Kudos

Show Chords

Print

Proud Souls - solo
by Jason Boland

~^~^~^~^~^~^~^~^~^~^~^~^~^~^~^~^~^~^~^~^~^~^~^~^~^~^~^~^~^~^~^~^~^~^~^~^

e---------------------------------------------e
B---------------------------------------------G
G--------------------------------2------------G
D------------------------0-2-2/4---4-2-0------D
A-----0-2-2/4-4-2-0-2--0----------------------A
E---0-----------------------------------------E
                                                                              

e---555-5\3-33--------------------------------e
B---777-7\5-55-333\2-22-0---------------------B
G-------------------------2-2/4---------------G
D---------------------------------------------D
A---------------------------------------------A
E---------------------------------------------E
                                                                              

e---0-5-7-7/9-9-7-7h9p7h9p7-7-9-10-12-12-10-9h10-5---e
B----------------------------------------------------B
G----------------------------------------------------G
D----------------------------------------------------D
A----------------------------------------------------A
E----------------------------------------------------E
                                                                              

e---9p-7-77\5-55\4-44-2-0-5-------------------e
B---------------------------------------------B
G---------------------------------------------G
D---------------------------------------------D
A---------------------------------------------A
E---------------------------------------------E

~^~^~^~^~^~^~^~^~^~^~^~^~^~^~^~^~^~^~^~^~^~^~^~^~^~^~^~^~^~^~^~^~^~^~^~^

/ = slide up
\ = slide down
h = hammer on
p = pull off
                                                                              
enjoy :)
mammycc_05 at yahoo.com
 Comments (click here to add a non-facebook comment)
really really good tab
-bigdaddy04 | 8/15/2005
Home | FAQs | Privacy | Terms | Advertise | Contact
Top 100 Tab Sites