Give Kudos?
Are you sure you want to give kudos to geetar81?

Add To Songbook?
Are you sure you want to add this song to your songbook?


2,831 bands | 36,009 songs
Search: Register FREE! | Login
Browse Songs:
Browse Bands:
Tool Panel
Discuss This Song

1 2 3 4 5



Joe Diffie - 3rd Rock From The Sun (Lead)
Album: Third Rock from the Sun (2007)
Submitter: geetar81 (3) on 5/8/02 1 comment
Month Views: 18 | Total Views: 8,865
Moderator: Ray Terry | Report This Song?
Song Tools

Comment

Songbook

Kudos

Show Chords

Print

Using a slide can get a nice affect similar to the slide down sound at the beginning of the song.


Lick 1 (Repeat)
E--------------------------|
B--------------------------|
G-0-----0-----0-----0------|
D---2-x---2-x---2-x---2----|
A---2-x---2-x---2-x---2----|
E--------------------------|

Lick 2
E----------------------------------|
B----------------------------------|
G----------------------------------|
D-0^2-2—0^2-2-0^2-2-0^2-2-2^0------|
A-0^2-2-0^2-2-0^2-2-0^2-2-2^0------|
E-----------------------------2b---|

“Things Come Undone…”
                       E---------------------|
                       B---------------------|
                       G---------------------|
                       D-2/7-5-4-2-2-0-------|
                       A---------------------|
                       E---------------2b-0--|

Semi Solo 1:21
E---------------------------------------------------|
B-------------12-10^8-10---------------------8------|
G-9^7-—-9b-----------------12b-9---------------7-9--|
D-----9--------------------------------7-9----------|
A----------------------------------7-9--------------|
E---------------------------------------------------|

(Start and stop Verse)
E-0--0---0--------0--------------(0)---x---0---|
B-0--0-----3^0----2---12-10------(0)---x---0---|
G-1--1---------0--2---------12^9-(1)---4---1---|
D-2--2------------2--------------(2)---4---2---|
A-2--2------------0--------------(2)---2---2---|
E-0--0------------0--------------(0)---0---0---|

End Lick
E---------------|
B-12^10---------|
G-------12^9----|
D---------------|
A---------------|
E---------------|

 - Geetar
 Comments (click here to add a non-facebook comment)
Looks like a good effort to me. Thanks.
-eric_steinmetz | 6/24/2003
Home | FAQs | Privacy | Terms | Advertise | Contact
Top 100 Tab Sites