Give Kudos?
Are you sure you want to give kudos to Stallion?

Add To Songbook?
Are you sure you want to add this song to your songbook?


2,976 bands | 36,759 songs
Search: Register FREE! | Login
Browse Songs:
Browse Bands:
Tool Panel
Discuss This Song

1 2 3 4 5



Joe Diffie - C-O-U-N-T-R-Y (Intro)
Album: Life's So Funny (1995)
Submitter: Stallion (0) on 3/11/02
Month Views: 159 | Total Views: 3,894
Moderator: Ray Terry | Report This Song?
Song Tools

Comment

Songbook

Kudos

Show Chords

Print

Joe Diffie - C-O-U-N-T-R-Y

By Stallion ksteberg at tiscali.no

This is the intro and outro. The chords is already out there.

************************************************************************
p = pulloff	/ = slide up	h = hammer on

x = muted string	b = bend		bh = bend and hold

\ = slide down	! harmonic	r = release bend

************************************************************************

Repeat this twice:

E--------------------------------------------------------------------|
B--------------------------------------------------------------------|
G--------2------------------------2-----2-------------------------2--|
D-----------5-----5-------------------------5-----5------------------|
A--0-3/4--4---0-4-------5-3p0-3/4---3/4---4---0-4-------5-3p0-3/4----|
E-------------------0-3-----------------------------0-3--------------|

This is the little lick at the end of the song 
                                           *
E--3p2p0----------------------------------------------|
B--------3p2p0----------------------------------------|
G--------------3-2-2p1p0------------------------------|
D------------------------2p1p0-----------2------------|
A------------------------------2-1-0-------3!~-0------|
E------------------------------------2/4--------------|

*Use a fake harmonic and bending vibrato
 (I will describe it in the lesson section)

Outro:
Repeat this twice (same as intro):

E--------------------------------------------------------------------|
B--------------------------------------------------------------------|
G--------2------------------------2-----2-------------------------2--|
D-----------5-----5-------------------------5-----5------------------|
A--0-3/4--4---0-4-------5-3p0-3/4---3/4---4---0-4-------5-3p0-3/4----|
E-------------------0-3-----------------------------0-3--------------|


   D  C        G  D  A
E-----------------------|
B-----------------------|
G----7---5--------7--2--|
D----7---5---x-5--7--2--|
A--5---3---x---5--5--0--|
E--------------3--------|




 Comments (click here to add a non-facebook comment)
Home | FAQs | Privacy | Terms | Advertise | Contact
Top 100 Tab Sites