Give Kudos?
Are you sure you want to give kudos to freekstylin_12?

Add To Songbook?
Are you sure you want to add this song to your songbook?


2,747 bands | 35,282 songs
Search: Register FREE! | Login
Browse Songs:
Browse Bands:
Tool Panel
Discuss This Song

1 2 3 4 5



Joe Nichols - Brokensheartville (Intro)
Album: Brokenheartsville (2003)
Submitter: freekstylin_12 (0) on 11/2/05
Month Views: 8 | Total Views: 4,523
Moderator: Ray Terry | Report This Song?
Song Tools

Comment

Songbook

Kudos

Show Chords

Print

Brokenheartsville
by Joe Nichols

Shantel's tab wasn't bad but I figured this one would work better.
Her chord sheet is awesome though, so play this intro with it.

   *CAPO 3*


|--------------------------------------------|
|--------------------------------------------|
|------4p-2-----4-----------4----------------|
|-5----------5------7---5-------7--5--7--2---|
|---5----------------------------------------|
|--------------------------------------------|


------------------------------------|
------------------------------------|
------------------------------------|
--4--5--4--2--0---------------------|
-----------------3--2--3--2--0------|
--------------------------------3---|
 Comments (click here to add a non-facebook comment)
Home | FAQs | Privacy | Terms | Advertise | Contact
Top 100 Tab Sites