Give Kudos?
Are you sure you want to give kudos to stevie_ray?

Add To Songbook?
Are you sure you want to add this song to your songbook?


2,831 bands | 36,010 songs
Search: Register FREE! | Login
Browse Songs:
Browse Bands:
Tool Panel
Discuss This Song

1 2 3 4 5



Joe Nichols - She Only Smokes When She Drinks (Solo)
Album: Man With A Memory (2002)
Submitter: stevie_ray (0) on 4/11/04 1 comment
Month Views: 8 | Total Views: 3,864
Moderator: Ray Terry | Report This Song?
Song Tools

Comment

Songbook

Kudos

Show Chords

Print

She Only Smokes When She Drinks 
by stevie_ray  Ryan Littlefield

E----------------------------------------------------E-
B-5-------5--5---------------------------------------B-
G-4br-2-4-4b-4-----------------------------------4---G-
D-------------------4/6-6\4p2----------2-----4/6-----D-
A---------------2-2-----------4-2--2-4---2-4---------A-
E----------------------------------------------------E-


E------------------------------E-
B------------------------------B-
G-----4-6p4------------1---1---G-
D-----4-6p4------------2h4-2---D-
A-4/6-------4br-2--2-4---------A-
E------------------------------E-
 Comments (click here to add a non-facebook comment)
Feel free to rate my tabs.
-stevie_ray | 5/3/2004
Home | FAQs | Privacy | Terms | Advertise | Contact
Top 100 Tab Sites